  0
SECTION
  2
HEADER
  9
$ACADVER
  1
AC1015
  9
$ACADMAINTVER
 70
     6
  9
$DWGCODEPAGE
  3
ANSI_1252
  9
$INSBASE
 10
0.0
 20
0.0
 30
0.0
  9
$EXTMIN
 10
0.0
 20
0.0
 30
0.0
  9
$EXTMAX
 10
594.0
 20
420.0
 30
0.0
  9
$LIMMIN
 10
0.0
 20
0.0
  9
$LIMMAX
 10
594.0
 20
420.0
  9
$ORTHOMODE
 70
     0
  9
$REGENMODE
 70
     1
  9
$FILLMODE
 70
     1
  9
$QTEXTMODE
 70
     0
  9
$MIRRTEXT
 70
     1
  9
$LTSCALE
 40
1.0
  9
$ATTMODE
 70
     1
  9
$TEXTSIZE
 40
2.5
  9
$TRACEWID
 40
1.0
  9
$TEXTSTYLE
  7
Standard
  9
$CLAYER
  8
0
  9
$CELTYPE
  6
ByLayer
  9
$CECOLOR
 62
   256
  9
$CELTSCALE
 40
1.0
  9
$DISPSILH
 70
     0
  9
$DIMSCALE
 40
1.0
  9
$DIMASZ
 40
2.5
  9
$DIMEXO
 40
0.625
  9
$DIMDLI
 40
3.75
  9
$DIMRND
 40
0.0
  9
$DIMDLE
 40
0.0
  9
$DIMEXE
 40
1.25
  9
$DIMTP
 40
0.0
  9
$DIMTM
 40
0.0
  9
$DIMTXT
 40
2.5
  9
$DIMCEN
 40
2.5
  9
$DIMTSZ
 40
0.0
  9
$DIMTOL
 70
     0
  9
$DIMLIM
 70
     0
  9
$DIMTIH
 70
     0
  9
$DIMTOH
 70
     0
  9
$DIMSE1
 70
     0
  9
$DIMSE2
 70
     0
  9
$DIMTAD
 70
     1
  9
$DIMZIN
 70
     8
  9
$DIMBLK
  1

  9
$DIMASO
 70
     1
  9
$DIMSHO
 70
     1
  9
$DIMPOST
  1

  9
$DIMAPOST
  1

  9
$DIMALT
 70
     0
  9
$DIMALTD
 70
     3
  9
$DIMALTF
 40
0.0393700787
  9
$DIMLFAC
 40
1.0
  9
$DIMTOFL
 70
     1
  9
$DIMTVP
 40
0.0
  9
$DIMTIX
 70
     0
  9
$DIMSOXD
 70
     0
  9
$DIMSAH
 70
     0
  9
$DIMBLK1
  1

  9
$DIMBLK2
  1

  9
$DIMSTYLE
  2
ISO-25
  9
$DIMCLRD
 70
     0
  9
$DIMCLRE
 70
     0
  9
$DIMCLRT
 70
     0
  9
$DIMTFAC
 40
1.0
  9
$DIMGAP
 40
0.625
  9
$DIMJUST
 70
     0
  9
$DIMSD1
 70
     0
  9
$DIMSD2
 70
     0
  9
$DIMTOLJ
 70
     0
  9
$DIMTZIN
 70
     8
  9
$DIMALTZ
 70
     0
  9
$DIMALTTZ
 70
     0
  9
$DIMUPT
 70
     0
  9
$DIMDEC
 70
     2
  9
$DIMTDEC
 70
     2
  9
$DIMALTU
 70
     2
  9
$DIMALTTD
 70
     3
  9
$DIMTXSTY
  7
Standard
  9
$DIMAUNIT
 70
     0
  9
$DIMADEC
 70
     0
  9
$DIMALTRND
 40
0.0
  9
$DIMAZIN
 70
     0
  9
$DIMDSEP
 70
    44
  9
$DIMATFIT
 70
     3
  9
$DIMFRAC
 70
     0
  9
$DIMLDRBLK
  1

  9
$DIMLUNIT
 70
     2
  9
$DIMLWD
 70
    -2
  9
$DIMLWE
 70
    -2
  9
$DIMTMOVE
 70
     0
  9
$LUNITS
 70
     2
  9
$LUPREC
 70
     4
  9
$SKETCHINC
 40
1.0
  9
$FILLETRAD
 40
10.0
  9
$AUNITS
 70
     0
  9
$AUPREC
 70
     0
  9
$MENU
  1
.
  9
$ELEVATION
 40
0.0
  9
$PELEVATION
 40
0.0
  9
$THICKNESS
 40
0.0
  9
$LIMCHECK
 70
     0
  9
$CHAMFERA
 40
10.0
  9
$CHAMFERB
 40
10.0
  9
$CHAMFERC
 40
20.0
  9
$CHAMFERD
 40
0.0
  9
$SKPOLY
 70
     0
  9
$TDCREATE
 40
2457071.519583218
  9
$TDUCREATE
 40
2457071.477916551
  9
$TDUPDATE
 40
2457071.519584838
  9
$TDUUPDATE
 40
2457071.477918171
  9
$TDINDWG
 40
0.0000000116
  9
$TDUSRTIMER
 40
0.0000000116
  9
$USRTIMER
 70
     1
  9
$ANGBASE
 50
0.0
  9
$ANGDIR
 70
     0
  9
$PDMODE
 70
     0
  9
$PDSIZE
 40
0.0
  9
$PLINEWID
 40
0.0
  9
$SPLFRAME
 70
     0
  9
$SPLINETYPE
 70
     6
  9
$SPLINESEGS
 70
     8
  9
$HANDSEED
  5
FA
  9
$SURFTAB1
 70
     6
  9
$SURFTAB2
 70
     6
  9
$SURFTYPE
 70
     6
  9
$SURFU
 70
     6
  9
$SURFV
 70
     6
  9
$UCSBASE
  2

  9
$UCSNAME
  2

  9
$UCSORG
 10
0.0
 20
0.0
 30
0.0
  9
$UCSXDIR
 10
1.0
 20
0.0
 30
0.0
  9
$UCSYDIR
 10
0.0
 20
1.0
 30
0.0
  9
$UCSORTHOREF
  2

  9
$UCSORTHOVIEW
 70
     0
  9
$UCSORGTOP
 10
0.0
 20
0.0
 30
0.0
  9
$UCSORGBOTTOM
 10
0.0
 20
0.0
 30
0.0
  9
$UCSORGLEFT
 10
0.0
 20
0.0
 30
0.0
  9
$UCSORGRIGHT
 10
0.0
 20
0.0
 30
0.0
  9
$UCSORGFRONT
 10
0.0
 20
0.0
 30
0.0
  9
$UCSORGBACK
 10
0.0
 20
0.0
 30
0.0
  9
$PUCSBASE
  2

  9
$PUCSNAME
  2

  9
$PUCSORG
 10
0.0
 20
0.0
 30
0.0
  9
$PUCSXDIR
 10
1.0
 20
0.0
 30
0.0
  9
$PUCSYDIR
 10
0.0
 20
1.0
 30
0.0
  9
$PUCSORTHOREF
  2

  9
$PUCSORTHOVIEW
 70
     0
  9
$PUCSORGTOP
 10
0.0
 20
0.0
 30
0.0
  9
$PUCSORGBOTTOM
 10
0.0
 20
0.0
 30
0.0
  9
$PUCSORGLEFT
 10
0.0
 20
0.0
 30
0.0
  9
$PUCSORGRIGHT
 10
0.0
 20
0.0
 30
0.0
  9
$PUCSORGFRONT
 10
0.0
 20
0.0
 30
0.0
  9
$PUCSORGBACK
 10
0.0
 20
0.0
 30
0.0
  9
$USERI1
 70
     0
  9
$USERI2
 70
     0
  9
$USERI3
 70
     0
  9
$USERI4
 70
     0
  9
$USERI5
 70
     0
  9
$USERR1
 40
0.0
  9
$USERR2
 40
0.0
  9
$USERR3
 40
0.0
  9
$USERR4
 40
0.0
  9
$USERR5
 40
0.0
  9
$WORLDVIEW
 70
     1
  9
$SHADEDGE
 70
     3
  9
$SHADEDIF
 70
    70
  9
$TILEMODE
 70
     1
  9
$MAXACTVP
 70
    64
  9
$PINSBASE
 10
0.0
 20
0.0
 30
0.0
  9
$PLIMCHECK
 70
     0
  9
$PEXTMIN
 10
0.0
 20
0.0
 30
0.0
  9
$PEXTMAX
 10
594.0
 20
420.0
 30
0.0
  9
$PLIMMIN
 10
0.0
 20
0.0
  9
$PLIMMAX
 10
594.0
 20
420.0
  9
$UNITMODE
 70
     0
  9
$VISRETAIN
 70
     1
  9
$PLINEGEN
 70
     0
  9
$PSLTSCALE
 70
     1
  9
$TREEDEPTH
 70
  3020
  9
$CMLSTYLE
  2
Standard
  9
$CMLJUST
 70
     0
  9
$CMLSCALE
 40
20.0
  9
$PROXYGRAPHICS
 70
     1
  9
$MEASUREMENT
 70
     1
  9
$CELWEIGHT
370
    -1
  9
$ENDCAPS
280
     0
  9
$JOINSTYLE
280
     0
  9
$LWDISPLAY
290
     0
  9
$INSUNITS
 70
     4
  9
$HYPERLINKBASE
  1

  9
$STYLESHEET
  1

  9
$XEDIT
290
     1
  9
$CEPSNTYPE
380
     0
  9
$PSTYLEMODE
290
     1
  9
$FINGERPRINTGUID
  2
{7BD850D0-0F3F-412F-8DC2-750C7478D086}
  9
$VERSIONGUID
  2
{FAEB1C32-E019-11D5-929B-00C0DF256EC4}
  9
$EXTNAMES
290
     1
  9
$PSVPSCALE
 40
0.0
  9
$OLESTARTUP
290
     0
  0
ENDSEC
  0
SECTION
  2
CLASSES
  0
CLASS
  1
ACDBDICTIONARYWDFLT
  2
AcDbDictionaryWithDefault
  3
ObjectDBX Classes
 90
        0
280
     0
281
     0
  0
CLASS
  1
VISUALSTYLE
  2
AcDbVisualStyle
  3
ObjectDBX Classes
 90
     4095
280
     0
281
     0
  0
CLASS
  1
MATERIAL
  2
AcDbMaterial
  3
ObjectDBX Classes
 90
     1153
280
     0
281
     0
  0
CLASS
  1
DICTIONARYVAR
  2
AcDbDictionaryVar
  3
ObjectDBX Classes
 90
        0
280
     0
281
     0
  0
CLASS
  1
ACDBPLACEHOLDER
  2
AcDbPlaceHolder
  3
ObjectDBX Classes
 90
        0
280
     0
281
     0
  0
CLASS
  1
LAYOUT
  2
AcDbLayout
  3
ObjectDBX Classes
 90
        0
280
     0
281
     0
  0
ENDSEC
  0
SECTION
  2
TABLES
  0
TABLE
  2
VPORT
  5
8
330
0
100
AcDbSymbolTable
 70
     1
  0
VPORT
  5
29
330
8
100
AcDbSymbolTableRecord
100
AcDbViewportTableRecord
  2
*Active
 70
     0
 10
0.0
 20
0.0
 11
1.0
 21
1.0
 12
344.1869158879
 22
148.5
 13
0.0
 23
0.0
 14
10.0
 24
10.0
 15
10.0
 25
10.0
 16
0.0
 26
0.0
 36
1.0
 17
0.0
 27
0.0
 37
0.0
 40
297.0
 41
1.9729729729
 42
50.0
 43
0.0
 44
0.0
 50
0.0
 51
0.0
 71
     0
 72
   100
 73
     1
 74
     3
 75
     0
 76
     0
 77
     0
 78
     0
281
     0
 65
     1
110
0.0
120
0.0
130
0.0
111
1.0
121
0.0
131
0.0
112
0.0
122
1.0
132
0.0
 79
     0
146
0.0
  0
ENDTAB
  0
TABLE
  2
LTYPE
  5
5
330
0
100
AcDbSymbolTable
 70
     1
  0
LTYPE
  5
14
330
5
100
AcDbSymbolTableRecord
100
AcDbLinetypeTableRecord
  2
ByBlock
 70
     0
  3

 72
    65
 73
     0
 40
0.0
  0
LTYPE
  5
15
330
5
100
AcDbSymbolTableRecord
100
AcDbLinetypeTableRecord
  2
ByLayer
 70
     0
  3

 72
    65
 73
     0
 40
0.0
  0
LTYPE
  5
16
330
5
100
AcDbSymbolTableRecord
100
AcDbLinetypeTableRecord
  2
Continuous
 70
     0
  3
Solid line
 72
    65
 73
     0
 40
0.0
  0
ENDTAB
  0
TABLE
  2
LAYER
  5
2
330
0
100
AcDbSymbolTable
 70
     2
  0
LAYER
  5
10
330
2
100
AcDbSymbolTableRecord
100
AcDbLayerTableRecord
  2
0
 70
     0
 62
     7
  6
Continuous
370
    -3
390
F
  0
LAYER
  5
3F
330
2
100
AcDbSymbolTableRecord
100
AcDbLayerTableRecord
  2
Predefinito
 70
     0
 62
     7
  6
Continuous
370
    -3
390
F
  0
ENDTAB
  0
TABLE
  2
STYLE
  5
3
330
0
100
AcDbSymbolTable
 70
     2
  0
STYLE
  5
11
330
3
100
AcDbSymbolTableRecord
100
AcDbTextStyleTableRecord
  2
Standard
 70
     0
 40
0.0
 41
1.0
 50
0.0
 71
     0
 42
2.5
  3
txt
  4

  0
STYLE
  5
C3
330
3
100
AcDbSymbolTableRecord
100
AcDbTextStyleTableRecord
  2
SEACAD_arial_ttf
 70
     0
 40
0.0
 41
1.0
 50
0.0
 71
     0
 42
0.2
  3

  4

1001
ACAD
1000
arial.ttf
1071
        0
  0
ENDTAB
  0
TABLE
  2
VIEW
  5
6
330
0
100
AcDbSymbolTable
 70
     0
  0
ENDTAB
  0
TABLE
  2
UCS
  5
7
330
0
100
AcDbSymbolTable
 70
     0
  0
ENDTAB
  0
TABLE
  2
APPID
  5
9
330
0
100
AcDbSymbolTable
 70
     1
  0
APPID
  5
12
330
9
100
AcDbSymbolTableRecord
100
AcDbRegAppTableRecord
  2
ACAD
 70
     0
  0
ENDTAB
  0
TABLE
  2
DIMSTYLE
  5
A
330
0
100
AcDbSymbolTable
 70
     1
100
AcDbDimStyleTable
  0
DIMSTYLE
105
27
330
A
100
AcDbSymbolTableRecord
100
AcDbDimStyleTableRecord
  2
ISO-25
 70
     0
 41
2.5
 42
0.625
 43
3.75
 44
1.25
 73
     0
 74
     0
 77
     1
 78
     8
140
2.5
141
2.5
143
0.0393700787
147
0.625
171
     3
172
     1
178
     0
271
     2
272
     2
274
     3
278
    44
283
     0
284
     8
340
11
  0
ENDTAB
  0
TABLE
  2
BLOCK_RECORD
  5
1
330
0
100
AcDbSymbolTable
 70
     1
  0
BLOCK_RECORD
  5
1F
330
1
100
AcDbSymbolTableRecord
100
AcDbBlockTableRecord
  2
*Model_Space
340
22
  0
BLOCK_RECORD
  5
1B
330
1
100
AcDbSymbolTableRecord
100
AcDbBlockTableRecord
  2
*Paper_Space
340
1E
  0
ENDTAB
  0
ENDSEC
  0
SECTION
  2
BLOCKS
  0
BLOCK
  5
20
330
1F
100
AcDbEntity
  8
0
100
AcDbBlockBegin
  2
*Model_Space
 70
     0
 10
0.0
 20
0.0
 30
0.0
  3
*Model_Space
  1

  0
ENDBLK
  5
21
330
1F
100
AcDbEntity
  8
0
100
AcDbBlockEnd
  0
BLOCK
  5
1C
330
1B
100
AcDbEntity
 67
     1
  8
0
100
AcDbBlockBegin
  2
*Paper_Space
 70
     0
 10
0.0
 20
0.0
 30
0.0
  3
*Paper_Space
  1

  0
ENDBLK
  5
1D
330
1B
100
AcDbEntity
 67
     1
  8
0
100
AcDbBlockEnd
  0
ENDSEC
  0
SECTION
  2
ENTITIES
  0
LINE
  5
40
330
1F
100
AcDbEntity
  8
Predefinito
  6
Continuous
 62
     7
100
AcDbLine
 10
150.993148359
 20
1159.20114424
 30
0.0
 11
725.7586135007
 21
1159.20114424
 31
0.0
  0
LINE
  5
41
330
1F
100
AcDbEntity
  8
Predefinito
  6
Continuous
 62
     7
100
AcDbLine
 10
725.7586135007
 20
1159.20114424
 30
0.0
 11
725.7586135007
 21
161.4554169403
 31
0.0
  0
LINE
  5
42
330
1F
100
AcDbEntity
  8
Predefinito
  6
Continuous
 62
     7
100
AcDbLine
 10
725.7586135007
 20
161.4554169403
 30
0.0
 11
150.993148359
 21
161.4554169403
 31
0.0
  0
LINE
  5
43
330
1F
100
AcDbEntity
  8
Predefinito
  6
Continuous
 62
     7
100
AcDbLine
 10
150.993148359
 20
1159.20114424
 30
0.0
 11
150.993148359
 21
161.4554169403
 31
0.0
  0
LINE
  5
44
330
1F
100
AcDbEntity
  8
Predefinito
  6
Continuous
 62
     7
100
AcDbLine
 10
376.3912687142
 20
452.218915405
 30
0.0
 11
497.5395523392
 21
452.218915405
 31
0.0
  0
LINE
  5
45
330
1F
100
AcDbEntity
  8
Predefinito
  6
Continuous
 62
     7
100
AcDbLine
 10
497.5395523392
 20
452.218915405
 30
0.0
 11
497.5395523392
 21
493.8148926153
 31
0.0
  0
LINE
  5
46
330
1F
100
AcDbEntity
  8
Predefinito
  6
Continuous
 62
     7
100
AcDbLine
 10
497.5395523392
 20
493.8148926153
 30
0.0
 11
376.3912687142
 21
493.8148926153
 31
0.0
  0
LINE
  5
47
330
1F
100
AcDbEntity
  8
Predefinito
  6
Continuous
 62
     7
100
AcDbLine
 10
376.3912687142
 20
493.8148926153
 30
0.0
 11
376.3912687142
 21
452.218915405
 31
0.0
  0
CIRCLE
  5
48
330
1F
100
AcDbEntity
  8
Predefinito
  6
Continuous
 62
     7
100
AcDbCircle
 10
262.0023313858
 20
315.4721403261
 30
0.0
 40
17.74697376444724
  0
CIRCLE
  5
49
330
1F
100
AcDbEntity
  8
Predefinito
  6
Continuous
 62
     7
100
AcDbCircle
 10
588.0108027716
 20
445.4595691083
 30
0.0
 40
7.072080716351667
  0
CIRCLE
  5
4A
330
1F
100
AcDbEntity
  8
Predefinito
  6
Continuous
 62
     7
100
AcDbCircle
 10
438.2652848145
 20
526.5717246684
 30
0.0
 40
6.261023670940588
  0
CIRCLE
  5
4B
330
1F
100
AcDbEntity
  8
Predefinito
  6
Continuous
 62
     7
100
AcDbCircle
 10
200.1283152855
 20
519.8123783717
 30
0.0
 40
6.779314866905839
  0
LINE
  5
4C
330
1F
100
AcDbEntity
  8
Predefinito
  6
Continuous
 62
     7
100
AcDbLine
 10
375.0913944263
 20
297.7938500117
 30
0.0
 11
496.2396780514
 21
297.7938500117
 31
0.0
  0
LINE
  5
4D
330
1F
100
AcDbEntity
  8
Predefinito
  6
Continuous
 62
     7
100
AcDbLine
 10
496.2396780514
 20
297.7938500117
 30
0.0
 11
496.2396780514
 21
339.389827222
 31
0.0
  0
LINE
  5
4E
330
1F
100
AcDbEntity
  8
Predefinito
  6
Continuous
 62
     7
100
AcDbLine
 10
496.2396780514
 20
339.389827222
 30
0.0
 11
375.0913944263
 21
339.389827222
 31
0.0
  0
LINE
  5
4F
330
1F
100
AcDbEntity
  8
Predefinito
  6
Continuous
 62
     7
100
AcDbLine
 10
375.0913944263
 20
339.389827222
 30
0.0
 11
375.0913944263
 21
297.7938500117
 31
0.0
  0
CIRCLE
  5
50
330
1F
100
AcDbEntity
  8
Predefinito
  6
Continuous
 62
     7
100
AcDbCircle
 10
436.9654105267
 20
372.1466592751
 30
0.0
 40
6.261023670940588
  0
CIRCLE
  5
51
330
1F
100
AcDbEntity
  8
Predefinito
  6
Continuous
 62
     7
100
AcDbCircle
 10
616.0880873886
 20
315.4721403261
 30
0.0
 40
17.74697376444724
  0
LINE
  5
52
330
1F
100
AcDbEntity
  8
Predefinito
  6
Continuous
 62
     7
100
AcDbLine
 10
580.7315067598
 20
478.2164011614
 30
0.0
 11
594.2501993532
 21
478.2164011614
 31
0.0
  0
LINE
  5
53
330
1F
100
AcDbEntity
  8
Predefinito
  6
Continuous
 62
     7
100
AcDbLine
 10
594.2501993532
 20
478.2164011614
 30
0.0
 11
594.2501993532
 21
500.0542891968
 31
0.0
  0
LINE
  5
54
330
1F
100
AcDbEntity
  8
Predefinito
  6
Continuous
 62
     7
100
AcDbLine
 10
594.2501993532
 20
500.0542891968
 30
0.0
 11
580.7315067598
 21
500.0542891968
 31
0.0
  0
LINE
  5
55
330
1F
100
AcDbEntity
  8
Predefinito
  6
Continuous
 62
     7
100
AcDbLine
 10
580.7315067598
 20
500.0542891968
 30
0.0
 11
580.7315067598
 21
478.2164011614
 31
0.0
  0
LINE
  5
56
330
1F
100
AcDbEntity
  8
Predefinito
  6
Continuous
 62
     7
100
AcDbLine
 10
254.723035374
 20
458.4583119865
 30
0.0
 11
321.2765989105
 21
458.4583119865
 31
0.0
  0
LINE
  5
57
330
1F
100
AcDbEntity
  8
Predefinito
  6
Continuous
 62
     7
100
AcDbLine
 10
321.2765989105
 20
458.4583119865
 30
0.0
 11
321.2765989105
 21
523.4520263776
 31
0.0
  0
LINE
  5
58
330
1F
100
AcDbEntity
  8
Predefinito
  6
Continuous
 62
     7
100
AcDbLine
 10
321.2765989105
 20
523.4520263776
 30
0.0
 11
254.723035374
 21
523.4520263776
 31
0.0
  0
LINE
  5
59
330
1F
100
AcDbEntity
  8
Predefinito
  6
Continuous
 62
     7
100
AcDbLine
 10
254.723035374
 20
523.4520263776
 30
0.0
 11
254.723035374
 21
458.4583119865
 31
0.0
  0
LINE
  5
5A
330
1F
100
AcDbEntity
  8
Predefinito
  6
Continuous
 62
     7
100
AcDbLine
 10
281.7604205607
 20
463.1378594227
 30
0.0
 11
291.6394651481
 21
463.1378594227
 31
0.0
  0
LINE
  5
5B
330
1F
100
AcDbEntity
  8
Predefinito
  6
Continuous
 62
     7
100
AcDbLine
 10
291.6394651481
 20
463.1378594227
 30
0.0
 11
291.6394651481
 21
516.1727303658
 31
0.0
  0
LINE
  5
5C
330
1F
100
AcDbEntity
  8
Predefinito
  6
Continuous
 62
     7
100
AcDbLine
 10
291.6394651481
 20
516.1727303658
 30
0.0
 11
281.7604205607
 21
516.1727303658
 31
0.0
  0
LINE
  5
5D
330
1F
100
AcDbEntity
  8
Predefinito
  6
Continuous
 62
     7
100
AcDbLine
 10
281.7604205607
 20
516.1727303658
 30
0.0
 11
281.7604205607
 21
463.1378594227
 31
0.0
  0
CIRCLE
  5
5E
330
1F
100
AcDbEntity
  8
Predefinito
  6
Continuous
 62
     7
100
AcDbCircle
 10
286.6999428544
 20
489.6552948943
 30
0.0
 40
14.57900754825162
  0
CIRCLE
  5
5F
330
1F
100
AcDbEntity
  8
Predefinito
  6
Continuous
 62
     7
100
AcDbCircle
 10
200.1283152855
 20
292.3920138071
 30
0.0
 40
6.779314866905839
  0
CIRCLE
  5
60
330
1F
100
AcDbEntity
  8
Predefinito
  6
Continuous
 62
     7
100
AcDbCircle
 10
675.9913740075
 20
519.8123783717
 30
0.0
 40
6.779314866905839
  0
CIRCLE
  5
61
330
1F
100
AcDbEntity
  8
Predefinito
  6
Continuous
 62
     7
100
AcDbCircle
 10
675.9913740075
 20
292.3920138071
 30
0.0
 40
6.779314866905839
  0
LINE
  5
62
330
1F
100
AcDbEntity
  8
Predefinito
  6
Continuous
 62
     7
100
AcDbLine
 10
150.993148359
 20
609.3355399724
 30
0.0
 11
725.7586135007
 21
609.3355399724
 31
0.0
  0
LINE
  5
63
330
1F
100
AcDbEntity
  8
Predefinito
  6
Continuous
 62
     7
100
AcDbLine
 10
150.993148359
 20
609.3355399724
 30
0.0
 11
192.6244571553
 21
567.7042311761
 31
0.0
  0
LINE
  5
64
330
1F
100
AcDbEntity
  8
Predefinito
  6
Continuous
 62
     7
100
AcDbLine
 10
192.6244571553
 20
567.7042311761
 30
0.0
 11
684.1273047044
 21
567.7042311761
 31
0.0
  0
LINE
  5
65
330
1F
100
AcDbEntity
  8
Predefinito
  6
Continuous
 62
     7
100
AcDbLine
 10
725.7586135007
 20
609.3355399724
 30
0.0
 11
684.1273047044
 21
567.7042311761
 31
0.0
  0
LINE
  5
66
330
1F
100
AcDbEntity
  8
Predefinito
  6
Continuous
 62
     7
100
AcDbLine
 10
192.6244571553
 20
567.7042311761
 30
0.0
 11
192.6244571553
 21
161.4554169403
 31
0.0
  0
LINE
  5
67
330
1F
100
AcDbEntity
  8
Predefinito
  6
Continuous
 62
     7
100
AcDbLine
 10
684.1273047044
 20
567.7042311761
 30
0.0
 11
684.1273047044
 21
161.4554169403
 31
0.0
  0
LINE
  5
68
330
1F
100
AcDbEntity
  8
Predefinito
  6
Continuous
 62
     7
100
AcDbLine
 10
157.6704821756
 20
161.4554169403
 30
0.0
 11
146.2999077844
 21
144.4608946236
 31
0.0
  0
LINE
  5
69
330
1F
100
AcDbEntity
  8
Predefinito
  6
Continuous
 62
     7
100
AcDbLine
 10
146.2999077844
 20
144.4608946236
 30
0.0
 11
201.0798755492
 21
144.4608946236
 31
0.0
  0
LINE
  5
6A
330
1F
100
AcDbEntity
  8
Predefinito
  6
Continuous
 62
     7
100
AcDbLine
 10
201.0798755492
 20
144.4608946236
 30
0.0
 11
188.783789289
 21
161.4554169403
 31
0.0
  0
LINE
  5
6B
330
1F
100
AcDbEntity
  8
Predefinito
  6
Continuous
 62
     7
100
AcDbLine
 10
719.0812796841
 20
161.4554169403
 30
0.0
 11
730.4518540753
 21
144.4608946236
 31
0.0
  0
LINE
  5
6C
330
1F
100
AcDbEntity
  8
Predefinito
  6
Continuous
 62
     7
100
AcDbLine
 10
730.4518540753
 20
144.4608946236
 30
0.0
 11
675.6718863105
 21
144.4608946236
 31
0.0
  0
LINE
  5
6D
330
1F
100
AcDbEntity
  8
Predefinito
  6
Continuous
 62
     7
100
AcDbLine
 10
675.6718863105
 20
144.4608946236
 30
0.0
 11
687.9679725707
 21
161.4554169403
 31
0.0
  0
LINE
  5
6E
330
1F
100
AcDbEntity
  8
Predefinito
  6
Continuous
 62
     7
100
AcDbLine
 10
194.7879548018
 20
609.3355399724
 30
0.0
 11
194.7879548018
 21
1115.4063377972
 31
0.0
  0
LINE
  5
6F
330
1F
100
AcDbEntity
  8
Predefinito
  6
Continuous
 62
     7
100
AcDbLine
 10
150.993148359
 20
1159.20114424
 30
0.0
 11
194.7879548018
 21
1115.4063377972
 31
0.0
  0
LINE
  5
70
330
1F
100
AcDbEntity
  8
Predefinito
  6
Continuous
 62
     7
100
AcDbLine
 10
681.9638070579
 20
609.3355399724
 30
0.0
 11
681.9638070579
 21
1115.4063377972
 31
0.0
  0
LINE
  5
71
330
1F
100
AcDbEntity
  8
Predefinito
  6
Continuous
 62
     7
100
AcDbLine
 10
725.7586135007
 20
1159.20114424
 30
0.0
 11
681.9638070579
 21
1115.4063377972
 31
0.0
  0
LINE
  5
72
330
1F
100
AcDbEntity
  8
Predefinito
  6
Continuous
 62
     7
100
AcDbLine
 10
375.7827785828
 20
609.3355399724
 30
0.0
 11
375.7827785828
 21
676.8830165802
 31
0.0
  0
LINE
  5
73
330
1F
100
AcDbEntity
  8
Predefinito
  6
Continuous
 62
     7
100
AcDbLine
 10
375.7827785828
 20
676.8830165802
 30
0.0
 11
400.2918913729
 21
730.8030647185
 31
0.0
  0
LINE
  5
74
330
1F
100
AcDbEntity
  8
Predefinito
  6
Continuous
 62
     7
100
AcDbLine
 10
400.2918913729
 20
730.8030647185
 30
0.0
 11
409.1151719774
 21
730.8030647185
 31
0.0
  0
LINE
  5
75
330
1F
100
AcDbEntity
  8
Predefinito
  6
Continuous
 62
     7
100
AcDbLine
 10
409.1151719774
 20
730.8030647185
 30
0.0
 11
409.1151719774
 21
816.0947772282
 31
0.0
  0
LINE
  5
76
330
1F
100
AcDbEntity
  8
Predefinito
  6
Continuous
 62
     7
100
AcDbLine
 10
409.1151719774
 20
816.0947772282
 30
0.0
 11
386.5667882104
 21
816.0947772282
 31
0.0
  0
LINE
  5
77
330
1F
100
AcDbEntity
  8
Predefinito
  6
Continuous
 62
     7
100
AcDbLine
 10
386.5667882104
 20
816.0947772282
 30
0.0
 11
386.5667882104
 21
859.2308157388
 31
0.0
  0
LINE
  5
78
330
1F
100
AcDbEntity
  8
Predefinito
  6
Continuous
 62
     7
100
AcDbLine
 10
386.5667882104
 20
859.2308157388
 30
0.0
 11
262.0604952365
 21
859.2308157388
 31
0.0
  0
LINE
  5
79
330
1F
100
AcDbEntity
  8
Predefinito
  6
Continuous
 62
     7
100
AcDbLine
 10
262.0604952365
 20
859.2308157388
 30
0.0
 11
262.0604952365
 21
871.9755543897
 31
0.0
  0
LINE
  5
7A
330
1F
100
AcDbEntity
  8
Predefinito
  6
Continuous
 62
     7
100
AcDbLine
 10
262.0604952365
 20
871.9755543897
 30
0.0
 11
270.3904554145
 21
871.9755543897
 31
0.0
  0
LINE
  5
7B
330
1F
100
AcDbEntity
  8
Predefinito
  6
Continuous
 62
     7
100
AcDbLine
 10
270.3904554145
 20
871.9755543897
 30
0.0
 11
270.3904554145
 21
902.8237718963
 31
0.0
  0
LINE
  5
7C
330
1F
100
AcDbEntity
  8
Predefinito
  6
Continuous
 62
     7
100
AcDbLine
 10
270.3904554145
 20
902.8237718963
 30
0.0
 11
210.9735875626
 21
902.8237718963
 31
0.0
  0
LINE
  5
7D
330
1F
100
AcDbEntity
  8
Predefinito
  6
Continuous
 62
     7
100
AcDbLine
 10
210.9735875626
 20
902.8237718963
 30
0.0
 11
210.9735875626
 21
943.7266881712
 31
0.0
  0
LINE
  5
7E
330
1F
100
AcDbEntity
  8
Predefinito
  6
Continuous
 62
     7
100
AcDbLine
 10
500.9689832769
 20
609.3355399724
 30
0.0
 11
500.9689832769
 21
676.8830165802
 31
0.0
  0
LINE
  5
7F
330
1F
100
AcDbEntity
  8
Predefinito
  6
Continuous
 62
     7
100
AcDbLine
 10
500.9689832769
 20
676.8830165802
 30
0.0
 11
476.4598704868
 21
730.8030647185
 31
0.0
  0
LINE
  5
80
330
1F
100
AcDbEntity
  8
Predefinito
  6
Continuous
 62
     7
100
AcDbLine
 10
476.4598704868
 20
730.8030647185
 30
0.0
 11
467.6365898823
 21
730.8030647185
 31
0.0
  0
LINE
  5
81
330
1F
100
AcDbEntity
  8
Predefinito
  6
Continuous
 62
     7
100
AcDbLine
 10
467.6365898823
 20
730.8030647185
 30
0.0
 11
467.6365898823
 21
816.0947772282
 31
0.0
  0
LINE
  5
82
330
1F
100
AcDbEntity
  8
Predefinito
  6
Continuous
 62
     7
100
AcDbLine
 10
467.6365898823
 20
816.0947772282
 30
0.0
 11
490.1849736493
 21
816.0947772282
 31
0.0
  0
LINE
  5
83
330
1F
100
AcDbEntity
  8
Predefinito
  6
Continuous
 62
     7
100
AcDbLine
 10
490.1849736493
 20
816.0947772282
 30
0.0
 11
490.1849736493
 21
859.2308157388
 31
0.0
  0
LINE
  5
84
330
1F
100
AcDbEntity
  8
Predefinito
  6
Continuous
 62
     7
100
AcDbLine
 10
490.1849736493
 20
859.2308157388
 30
0.0
 11
614.6912666232
 21
859.2308157388
 31
0.0
  0
LINE
  5
85
330
1F
100
AcDbEntity
  8
Predefinito
  6
Continuous
 62
     7
100
AcDbLine
 10
614.6912666232
 20
859.2308157388
 30
0.0
 11
614.6912666232
 21
871.9755543897
 31
0.0
  0
LINE
  5
86
330
1F
100
AcDbEntity
  8
Predefinito
  6
Continuous
 62
     7
100
AcDbLine
 10
614.6912666232
 20
871.9755543897
 30
0.0
 11
606.3613064452
 21
871.9755543897
 31
0.0
  0
LINE
  5
87
330
1F
100
AcDbEntity
  8
Predefinito
  6
Continuous
 62
     7
100
AcDbLine
 10
606.3613064452
 20
871.9755543897
 30
0.0
 11
606.3613064452
 21
902.8237718963
 31
0.0
  0
LINE
  5
88
330
1F
100
AcDbEntity
  8
Predefinito
  6
Continuous
 62
     7
100
AcDbLine
 10
606.3613064452
 20
902.8237718963
 30
0.0
 11
665.7781742971
 21
902.8237718963
 31
0.0
  0
LINE
  5
89
330
1F
100
AcDbEntity
  8
Predefinito
  6
Continuous
 62
     7
100
AcDbLine
 10
665.7781742971
 20
902.8237718963
 30
0.0
 11
665.7781742971
 21
943.7266881712
 31
0.0
  0
LINE
  5
8A
330
1F
100
AcDbEntity
  8
Predefinito
  6
Continuous
 62
     7
100
AcDbLine
 10
210.9735875626
 20
943.7266881712
 30
0.0
 11
665.7781742971
 21
943.7266881712
 31
0.0
  0
LINE
  5
8B
330
1F
100
AcDbEntity
  8
Predefinito
  6
Continuous
 62
     7
100
AcDbLine
 10
292.350502822
 20
902.8237718963
 30
0.0
 11
292.350502822
 21
871.9755543897
 31
0.0
  0
LINE
  5
8C
330
1F
100
AcDbEntity
  8
Predefinito
  6
Continuous
 62
     7
100
AcDbLine
 10
584.4012590377
 20
902.8237718963
 30
0.0
 11
584.4012590377
 21
871.9755543897
 31
0.0
  0
LINE
  5
8D
330
1F
100
AcDbEntity
  8
Predefinito
  6
Continuous
 62
     7
100
AcDbLine
 10
292.350502822
 20
902.8237718963
 30
0.0
 11
584.4012590377
 21
902.8237718963
 31
0.0
  0
LINE
  5
8E
330
1F
100
AcDbEntity
  8
Predefinito
  6
Continuous
 62
     7
100
AcDbLine
 10
584.4012590377
 20
871.9755543897
 30
0.0
 11
292.350502822
 21
871.9755543897
 31
0.0
  0
LINE
  5
8F
330
1F
100
AcDbEntity
  8
Predefinito
  6
Continuous
 62
     7
100
AcDbLine
 10
375.7827785828
 20
676.8830165802
 30
0.0
 11
500.9689832769
 21
676.8830165802
 31
0.0
  0
LINE
  5
90
330
1F
100
AcDbEntity
  8
Predefinito
  6
Continuous
 62
     7
100
AcDbLine
 10
409.1151719774
 20
730.8030647185
 30
0.0
 11
467.6365898823
 21
730.8030647185
 31
0.0
  0
LINE
  5
91
330
1F
100
AcDbEntity
  8
Predefinito
  6
Continuous
 62
     7
100
AcDbLine
 10
425.350876509
 20
902.8237718963
 30
0.0
 11
400.2918913729
 21
871.9755543897
 31
0.0
  0
LINE
  5
92
330
1F
100
AcDbEntity
  8
Predefinito
  6
Continuous
 62
     7
100
AcDbLine
 10
451.4008853507
 20
902.8237718963
 30
0.0
 11
476.4598704868
 21
871.9755543897
 31
0.0
  0
LINE
  5
93
330
1F
100
AcDbEntity
  8
Predefinito
  6
Continuous
 62
     7
100
AcDbLine
 10
409.1151719774
 20
816.0947772282
 30
0.0
 11
467.6365898823
 21
816.0947772282
 31
0.0
  0
LINE
  5
94
330
1F
100
AcDbEntity
  8
Predefinito
  6
Continuous
 62
     7
100
AcDbLine
 10
380.1926100944
 20
837.6627964835
 30
0.0
 11
335.652950069
 21
816.0947772282
 31
0.0
  0
SPLINE
  5
95
330
1F
100
AcDbEntity
  8
Predefinito
  6
Continuous
 62
     7
100
AcDbSpline
210
0.0
220
0.0
230
1.0
 70
     8
 71
     3
 72
    13
 73
     9
 74
     0
 42
0.0000000001207333
 43
0.0000000001
 12
1.0
 22
0.0
 32
0.0
 13
1.0
 23
0.0
 33
0.0
 40
0.0
 40
0.0
 40
0.0
 40
0.0
 40
0.228389358597121
 40
0.3994753157990875
 40
0.5220983485654095
 40
0.6036659766358095
 40
0.8326372198921748
 40
1.0
 40
1.0
 40
1.0
 40
1.0
 10
335.6529500689716
 20
816.0947772281554
 30
0.0
 10
329.4587470064636
 20
817.4974085211983
 30
0.0
 10
319.0375479343127
 20
818.7544566061877
 30
0.0
 10
308.5734615125485
 20
809.0418050967108
 30
0.0
 10
306.5149553629662
 20
797.8627612715937
 30
0.0
 10
316.7534615412067
 20
791.4688693099866
 30
0.0
 10
330.5876390199686
 20
793.1155655217724
 30
0.0
 10
337.0661670148758
 20
800.3060777138552
 30
0.0
 10
339.9831947936646
 20
803.9324691542892
 30
0.0
  0
LINE
  5
96
330
1F
100
AcDbEntity
  8
Predefinito
  6
Continuous
 62
     7
100
AcDbLine
 10
339.9831947937
 20
803.9324691543
 30
0.0
 11
386.5667882104
 21
829.2953311132
 31
0.0
  0
LINE
  5
97
330
1F
100
AcDbEntity
  8
Predefinito
  6
Continuous
 62
     7
100
AcDbLine
 10
496.5591517653
 20
837.6627964835
 30
0.0
 11
541.0988117907
 21
816.0947772282
 31
0.0
  0
SPLINE
  5
98
330
1F
100
AcDbEntity
  8
Predefinito
  6
Continuous
 62
     7
100
AcDbSpline
210
0.0
220
0.0
230
1.0
 70
     8
 71
     3
 72
    13
 73
     9
 74
     0
 42
0.0000000001207333
 43
0.0000000001
 12
1.0
 22
0.0
 32
0.0
 13
1.0
 23
0.0
 33
0.0
 40
0.0
 40
0.0
 40
0.0
 40
0.0
 40
0.228389358597121
 40
0.3994753157990875
 40
0.5220983485654095
 40
0.6036659766358095
 40
0.8326372198921748
 40
1.0
 40
1.0
 40
1.0
 40
1.0
 10
541.0988117907331
 20
816.0947772281554
 30
0.0
 10
547.2930148532411
 20
817.4974085211983
 30
0.0
 10
557.714213925392
 20
818.7544566061877
 30
0.0
 10
568.1783003471562
 20
809.0418050967108
 30
0.0
 10
570.2368064967392
 20
797.8627612715937
 30
0.0
 10
559.998300318498
 20
791.4688693099866
 30
0.0
 10
546.164122839736
 20
793.1155655217724
 30
0.0
 10
539.6855948448296
 20
800.3060777138552
 30
0.0
 10
536.7685670660401
 20
803.9324691542892
 30
0.0
  0
LINE
  5
99
330
1F
100
AcDbEntity
  8
Predefinito
  6
Continuous
 62
     7
100
AcDbLine
 10
536.768567066
 20
803.9324691543
 30
0.0
 11
490.1849736493
 21
829.2953311132
 31
0.0
  0
LINE
  5
9A
330
1F
100
AcDbEntity
  8
Predefinito
  6
Continuous
 62
     7
100
AcDbLine
 10
434.036689027
 20
837.2467746428
 30
0.0
 11
438.3758809299
 21
812.7087212028
 31
0.0
  0
SPLINE
  5
9B
330
1F
100
AcDbEntity
  8
Predefinito
  6
Continuous
 62
     7
100
AcDbSpline
210
0.0
220
0.0
230
1.0
 70
     8
 71
     3
 72
    13
 73
     9
 74
     0
 42
0.0000000001451531
 43
0.0000000001
 12
1.0
 22
0.0
 32
0.0
 13
1.0
 23
0.0
 33
0.0
 40
0.0
 40
0.0
 40
0.0
 40
0.0
 40
0.1431350532486252
 40
0.2945184227435
 40
0.5243520823974542
 40
0.7550565628258088
 40
0.9243083152525571
 40
1.0
 40
1.0
 40
1.0
 40
1.0
 10
438.3758809298523
 20
812.7087212028317
 30
0.0
 10
436.4559762354204
 20
810.4231604404283
 30
0.0
 10
433.3938699295608
 20
806.3134515655848
 30
0.0
 10
432.1411906886702
 20
794.4159209038032
 30
0.0
 10
448.0661196086859
 20
790.8637722641744
 30
0.0
 10
456.0963781285898
 20
800.7577515574934
 30
0.0
 10
455.909347484033
 20
813.6441724669744
 30
0.0
 10
450.6529462870529
 20
813.0121566775666
 30
0.0
 10
449.1039148234457
 20
812.7087212028317
 30
0.0
  0
LINE
  5
9C
330
1F
100
AcDbEntity
  8
Predefinito
  6
Continuous
 62
     7
100
AcDbLine
 10
449.1039148234
 20
812.7087212028
 30
0.0
 11
445.6599774985
 21
837.2467746428
 31
0.0
  0
ARC
  5
9D
330
1F
100
AcDbEntity
  8
Predefinito
  6
Continuous
 62
     7
100
AcDbCircle
 10
438.3758809299
 20
-2149.7247266524
 30
0.0
 40
3148.967626836827
100
AcDbArc
 50
85.5634613653
 51
94.4365386347
  0
ARC
  5
9E
330
1F
100
AcDbEntity
  8
Predefinito
  6
Continuous
 62
     7
100
AcDbCircle
 10
438.3758809299
 20
-2136.300602134
 30
0.0
 40
3148.967626836827
100
AcDbArc
 50
85.5634613653
 51
94.4365386347
  0
ARC
  5
9F
330
1F
100
AcDbEntity
  8
Predefinito
  6
Continuous
 62
     7
100
AcDbCircle
 10
438.3758809299
 20
-2122.8764776156
 30
0.0
 40
3148.967626836827
100
AcDbArc
 50
85.5634613653
 51
94.4365386347
  0
ARC
  5
A0
330
1F
100
AcDbEntity
  8
Predefinito
  6
Continuous
 62
     7
100
AcDbCircle
 10
438.3758809299
 20
-2109.4523530972
 30
0.0
 40
3148.967626836827
100
AcDbArc
 50
85.5634613653
 51
94.4365386347
  0
ARC
  5
A1
330
1F
100
AcDbEntity
  8
Predefinito
  6
Continuous
 62
     7
100
AcDbCircle
 10
438.3758809299
 20
-2096.0282285787
 30
0.0
 40
3148.967626836827
100
AcDbArc
 50
85.5634613653
 51
94.4365386347
  0
ARC
  5
A2
330
1F
100
AcDbEntity
  8
Predefinito
  6
Continuous
 62
     7
100
AcDbCircle
 10
438.3758809299
 20
-2082.6041040603
 30
0.0
 40
3148.967626836827
100
AcDbArc
 50
85.5634613653
 51
94.4365386347
  0
ARC
  5
A3
330
1F
100
AcDbEntity
  8
Predefinito
  6
Continuous
 62
     7
100
AcDbCircle
 10
438.3758809299
 20
-2069.1799795419
 30
0.0
 40
3148.967626836827
100
AcDbArc
 50
85.5634613653
 51
86.7185370694
  0
LINE
  5
A4
330
1F
100
AcDbEntity
  8
Predefinito
  6
Continuous
 62
     7
100
AcDbLine
 10
1041.7722466919
 20
1159.20114424
 30
0.0
 11
1041.7722466919
 21
161.4554169403
 31
0.0
  0
LINE
  5
A5
330
1F
100
AcDbEntity
  8
Predefinito
  6
Continuous
 62
     7
100
AcDbLine
 10
1041.7722466919
 20
161.4554169403
 30
0.0
 11
1070.0215437312
 21
161.4554169403
 31
0.0
  0
LINE
  5
A6
330
1F
100
AcDbEntity
  8
Predefinito
  6
Continuous
 62
     7
100
AcDbLine
 10
1041.7722466919
 20
161.4554169403
 30
0.0
 11
1691.744409086
 21
161.4554169403
 31
0.0
  0
LINE
  5
A7
330
1F
100
AcDbEntity
  8
Predefinito
  6
Continuous
 62
     7
100
AcDbLine
 10
1588.2743509275
 20
606.5680903363
 30
0.0
 11
1526.2541964231
 21
606.5680903363
 31
0.0
  0
LINE
  5
A8
330
1F
100
AcDbEntity
  8
Predefinito
  6
Continuous
 62
     7
100
AcDbLine
 10
1526.2541964231
 20
606.5680903363
 30
0.0
 11
1526.2541964231
 21
1159.20114424
 31
0.0
  0
LINE
  5
A9
330
1F
100
AcDbEntity
  8
Predefinito
  6
Continuous
 62
     7
100
AcDbLine
 10
1041.7722466919
 20
1159.20114424
 30
0.0
 11
1526.2541964231
 21
1159.20114424
 31
0.0
  0
LINE
  5
AA
330
1F
100
AcDbEntity
  8
Predefinito
  6
Continuous
 62
     7
100
AcDbLine
 10
1588.2743509275
 20
606.5680903363
 30
0.0
 11
1041.7722466919
 21
606.5680903363
 31
0.0
  0
CIRCLE
  5
AB
330
1F
100
AcDbEntity
  8
Predefinito
  6
Continuous
 62
     7
100
AcDbCircle
 10
1171.7229994074
 20
1056.5807242319
 30
0.0
 40
9.854291253186608
  0
CIRCLE
  5
AC
330
1F
100
AcDbEntity
  8
Predefinito
  6
Continuous
 62
     7
100
AcDbCircle
 10
1480.2675039082
 20
1056.5807242319
 30
0.0
 40
9.854291253186608
  0
CIRCLE
  5
AD
330
1F
100
AcDbEntity
  8
Predefinito
  6
Continuous
 62
     7
100
AcDbCircle
 10
1480.2675039082
 20
636.1309640959
 30
0.0
 40
9.854291253186608
  0
LINE
  5
AE
330
1F
100
AcDbEntity
  8
Predefinito
  6
Continuous
 62
     7
100
AcDbLine
 10
1526.2541964231
 20
1066.5738083196
 30
0.0
 11
1649.2477799752
 21
1073.6059786036
 31
0.0
  0
LINE
  5
AF
330
1F
100
AcDbEntity
  8
Predefinito
  6
Continuous
 62
     7
100
AcDbLine
 10
1649.2477799752
 20
1073.6059786036
 30
0.0
 11
1653.5752394102
 21
997.9181436825
 31
0.0
  0
LINE
  5
B0
330
1F
100
AcDbEntity
  8
Predefinito
  6
Continuous
 62
     7
100
AcDbLine
 10
1653.5752394102
 20
997.9181436825
 30
0.0
 11
1526.2541964231
 21
990.638550478
 31
0.0
  0
LINE
  5
B1
330
1F
100
AcDbEntity
  8
Predefinito
  6
Continuous
 62
     7
100
AcDbLine
 10
1526.2541964231
 20
943.5108283502
 30
0.0
 11
1637.380992621
 21
943.5108283502
 31
0.0
  0
LINE
  5
B2
330
1F
100
AcDbEntity
  8
Predefinito
  6
Continuous
 62
     7
100
AcDbLine
 10
1637.380992621
 20
943.5108283502
 30
0.0
 11
1637.380992621
 21
900.4387853609
 31
0.0
  0
LINE
  5
B3
330
1F
100
AcDbEntity
  8
Predefinito
  6
Continuous
 62
     7
100
AcDbLine
 10
1637.380992621
 20
900.4387853609
 30
0.0
 11
1526.2541964231
 21
900.4387853609
 31
0.0
  0
LINE
  5
B4
330
1F
100
AcDbEntity
  8
Predefinito
  6
Continuous
 62
     7
100
AcDbLine
 10
1526.2541964231
 20
1053.1496838012
 30
0.0
 11
1649.2477799752
 21
1060.1818540851
 31
0.0
  0
LINE
  5
B5
330
1F
100
AcDbEntity
  8
Predefinito
  6
Continuous
 62
     7
100
AcDbLine
 10
1526.2541964231
 20
1039.7255592827
 30
0.0
 11
1649.2477799752
 21
1046.7577295667
 31
0.0
  0
LINE
  5
B6
330
1F
100
AcDbEntity
  8
Predefinito
  6
Continuous
 62
     7
100
AcDbLine
 10
1526.2541964231
 20
1026.3014347643
 30
0.0
 11
1649.2477799752
 21
1033.3336050483
 31
0.0
  0
LINE
  5
B7
330
1F
100
AcDbEntity
  8
Predefinito
  6
Continuous
 62
     7
100
AcDbLine
 10
1526.2541964231
 20
1012.8773102459
 30
0.0
 11
1649.2477799752
 21
1019.9094805298
 31
0.0
  0
LINE
  5
B8
330
1F
100
AcDbEntity
  8
Predefinito
  6
Continuous
 62
     7
100
AcDbLine
 10
1526.2541964231
 20
999.4531857275
 30
0.0
 11
1649.2477799752
 21
1006.4853560114
 31
0.0
  0
SPLINE
  5
B9
330
1F
100
AcDbEntity
  8
Predefinito
  6
Continuous
 62
     7
100
AcDbSpline
210
0.0
220
0.0
230
1.0
 70
     8
 71
     3
 72
    17
 73
    13
 74
     0
 42
0.0000000001012118
 43
0.0000000001
 12
1.0
 22
0.0
 32
0.0
 13
1.0
 23
0.0
 33
0.0
 40
0.0
 40
0.0
 40
0.0
 40
0.0
 40
0.1135793153624384
 40
0.2323632361140641
 40
0.3905573932997443
 40
0.4804924648764175
 40
0.5454307882163517
 40
0.6432808356367699
 40
0.745822594103024
 40
0.9392129382796924
 40
0.9717352845253054
 40
1.0
 40
1.0
 40
1.0
 40
1.0
 10
1526.254196423099
 20
818.9454312323815
 30
0.0
 10
1529.166247474795
 20
816.7164847221485
 30
0.0
 10
1534.70421222543
 20
812.309195177233
 30
0.0
 10
1546.925598636217
 20
816.688190281838
 30
0.0
 10
1556.394244937987
 20
811.8937278136203
 30
0.0
 10
1565.164195646869
 20
804.432327205106
 30
0.0
 10
1559.545546621352
 20
797.5777309411253
 30
0.0
 10
1553.167945578241
 20
793.7852745474169
 30
0.0
 10
1539.919855752185
 20
792.7014608251758
 30
0.0
 10
1536.412227047312
 20
805.2222749939767
 30
0.0
 10
1528.826311005825
 20
807.0151772667709
 30
0.0
 10
1527.165312925221
 20
806.9580500984578
 30
0.0
 10
1526.254196423099
 20
806.9061209201184
 30
0.0
  0
LINE
  5
BA
330
1F
100
AcDbEntity
  8
Predefinito
  6
Continuous
 62
     7
100
AcDbLine
 10
1578.9803644145
 20
161.4554169403
 30
0.0
 11
1590.3509388056
 21
144.4608946236
 31
0.0
  0
LINE
  5
BB
330
1F
100
AcDbEntity
  8
Predefinito
  6
Continuous
 62
     7
100
AcDbLine
 10
1590.3509388056
 20
144.4608946236
 30
0.0
 11
1535.5709710408
 21
144.4608946236
 31
0.0
  0
LINE
  5
BC
330
1F
100
AcDbEntity
  8
Predefinito
  6
Continuous
 62
     7
100
AcDbLine
 10
1535.5709710408
 20
144.4608946236
 30
0.0
 11
1547.867057301
 21
161.4554169403
 31
0.0
  0
LINE
  5
BD
330
1F
100
AcDbEntity
  8
Predefinito
  6
Continuous
 62
     7
100
AcDbLine
 10
1138.1843705098
 20
161.4554169403
 30
0.0
 11
1149.554944901
 21
144.4608946236
 31
0.0
  0
LINE
  5
BE
330
1F
100
AcDbEntity
  8
Predefinito
  6
Continuous
 62
     7
100
AcDbLine
 10
1149.554944901
 20
144.4608946236
 30
0.0
 11
1094.7749771362
 21
144.4608946236
 31
0.0
  0
LINE
  5
BF
330
1F
100
AcDbEntity
  8
Predefinito
  6
Continuous
 62
     7
100
AcDbLine
 10
1094.7749771362
 20
144.4608946236
 30
0.0
 11
1107.0710633964
 21
161.4554169403
 31
0.0
  0
LINE
  5
C0
330
1F
100
AcDbEntity
  8
Predefinito
  6
Continuous
 62
     7
100
AcDbLine
 10
681.9638070579
 20
1074.6245628791
 30
0.0
 11
194.7879548018
 21
1074.6245628791
 31
0.0
  0
ARC
  5
C1
330
1F
100
AcDbEntity
  8
Predefinito
  6
Continuous
 62
     7
100
AcDbCircle
 10
438.3758809299
 20
-2069.1799795419
 30
0.0
 40
3148.967626836827
100
AcDbArc
 50
93.2814629306
 51
94.4365386347
  0
LINE
  5
C2
330
1F
100
AcDbEntity
  8
Predefinito
  6
Continuous
 62
     7
100
AcDbLine
 10
1691.744409086
 20
161.4554169403
 30
0.0
 11
1588.2743509275
 21
606.5680903363
 31
0.0
  0
TEXT
  5
C4
330
1F
100
AcDbEntity
  8
Predefinito
  6
Continuous
 62
     7
100
AcDbText
 10
479.729714133
 20
1636.4594234558
 30
0.0
 40
200.0
  1
iP45
  7
SEACAD_arial_ttf
 11
479.729714133
 21
1836.4594234558
 31
0.0
100
AcDbText
 73
     3
  0
LINE
  5
C5
330
1F
100
AcDbEntity
  8
Predefinito
  6
Continuous
 62
     7
100
AcDbLine
 10
150.993148359
 20
-133.5464614658
 30
0.0
 11
150.993148359
 21
-783.4346970458
 31
0.0
  0
LINE
  5
C6
330
1F
100
AcDbEntity
  8
Predefinito
  6
Continuous
 62
     7
100
AcDbLine
 10
725.7586135007
 20
-783.4346970458
 30
0.0
 11
725.7586135007
 21
-133.5464614658
 31
0.0
  0
LINE
  5
C7
330
1F
100
AcDbEntity
  8
Predefinito
  6
Continuous
 62
     7
100
AcDbLine
 10
725.7586135007
 20
-133.5464614658
 30
0.0
 11
150.993148359
 21
-133.5464614658
 31
0.0
  0
LINE
  5
C8
330
1F
100
AcDbEntity
  8
Predefinito
  6
Continuous
 62
     7
100
AcDbLine
 10
382.1667154415
 20
-783.4346970458
 30
0.0
 11
150.993148359
 21
-783.4346970458
 31
0.0
  0
LINE
  5
C9
330
1F
100
AcDbEntity
  8
Predefinito
  6
Continuous
 62
     7
100
AcDbLine
 10
150.993148359
 20
-783.4346970458
 30
0.0
 11
725.7586135007
 21
-783.4346970458
 31
0.0
  0
LINE
  5
CA
330
1F
100
AcDbEntity
  8
Predefinito
  6
Continuous
 62
     7
100
AcDbLine
 10
150.993148359
 20
-133.5464614658
 30
0.0
 11
150.993148359
 21
-759.9582264168
 31
0.0
  0
LINE
  5
CB
330
1F
100
AcDbEntity
  8
Predefinito
  6
Continuous
 62
     7
100
AcDbLine
 10
150.993148359
 20
-679.2582264168
 30
0.0
 11
725.7586135007
 21
-679.2582264168
 31
0.0
  0
ARC
  5
CC
330
1F
100
AcDbEntity
  8
Predefinito
  6
Continuous
 62
     7
100
AcDbCircle
 10
438.3758809299
 20
-501.5410938752
 30
0.0
 40
227.5
100
AcDbArc
 50
231.3682109446
 51
308.6317890554
  0
ENDSEC
  0
SECTION
  2
OBJECTS
  0
DICTIONARY
  5
C
330
0
100
AcDbDictionary
281
     1
  3
ACAD_GROUP
350
D
  3
ACAD_LAYOUT
350
1A
  3
ACAD_MATERIAL
350
3B
  3
ACAD_MLEADERSTYLE
350
CF
  3
ACAD_MLINESTYLE
350
17
  3
ACAD_PLOTSETTINGS
350
19
  3
ACAD_PLOTSTYLENAME
350
E
  3
ACAD_VISUALSTYLE
350
2A
  3
AcDbVariableDictionary
350
CD
  0
DICTIONARY
  5
D
102
{ACAD_REACTORS
330
C
102
}
330
C
100
AcDbDictionary
281
     1
  0
DICTIONARY
  5
1A
102
{ACAD_REACTORS
330
C
102
}
330
C
100
AcDbDictionary
281
     1
  3
Layout1
350
1E
  3
Model
350
22
  0
DICTIONARY
  5
3B
102
{ACAD_REACTORS
330
C
102
}
330
C
100
AcDbDictionary
281
     1
  3
ByBlock
350
3D
  3
ByLayer
350
3C
  3
Global
350
3E
  0
DICTIONARY
  5
CF
102
{ACAD_REACTORS
330
C
102
}
330
C
100
AcDbDictionary
281
     1
  0
DICTIONARY
  5
17
102
{ACAD_REACTORS
330
C
102
}
330
C
100
AcDbDictionary
281
     1
  3
Standard
350
18
  0
DICTIONARY
  5
19
102
{ACAD_REACTORS
330
C
102
}
330
C
100
AcDbDictionary
281
     1
  0
ACDBDICTIONARYWDFLT
  5
E
102
{ACAD_REACTORS
330
C
102
}
330
C
100
AcDbDictionary
281
     1
  3
Normal
350
F
100
AcDbDictionaryWithDefault
340
F
  0
DICTIONARY
  5
2A
102
{ACAD_REACTORS
330
C
102
}
330
C
100
AcDbDictionary
281
     1
  3
2dWireframe
350
2F
  3
3D Hidden
350
31
  3
3dWireframe
350
30
  3
Basic
350
32
  3
Brighten
350
36
  3
ColorChange
350
3A
  3
Conceptual
350
34
  3
Dim
350
35
  3
Facepattern
350
39
  3
Flat
350
2B
  3
FlatWithEdges
350
2C
  3
Gouraud
350
2D
  3
GouraudWithEdges
350
2E
  3
Linepattern
350
38
  3
Realistic
350
33
  3
Thicken
350
37
  0
DICTIONARY
  5
CD
102
{ACAD_REACTORS
330
C
102
}
330
C
100
AcDbDictionary
281
     1
  3
DIMASSOC
350
D2
  3
HIDETEXT
350
D3
  3
PSOLHEIGHT
350
D1
  3
PSOLWIDTH
350
D0
  0
LAYOUT
  5
1E
102
{ACAD_REACTORS
330
1A
102
}
330
1A
100
AcDbPlotSettings
  1

  2
none_device
  4

  6

 40
0.0
 41
0.0
 42
0.0
 43
0.0
 44
0.0
 45
0.0
 46
0.0
 47
0.0
 48
0.0
 49
0.0
140
0.0
141
0.0
142
1.0
143
1.0
 70
   688
 72
     0
 73
     0
 74
     5
  7

 75
    16
147
1.0
148
0.0
149
0.0
100
AcDbLayout
  1
Layout1
 70
     1
 71
     1
 10
0.0
 20
0.0
 11
594.0
 21
420.0
 12
0.0
 22
0.0
 32
0.0
 14
0.0
 24
0.0
 34
0.0
 15
594.0
 25
420.0
 35
0.0
146
0.0
 13
0.0
 23
0.0
 33
0.0
 16
1.0
 26
0.0
 36
0.0
 17
0.0
 27
1.0
 37
0.0
 76
     0
330
1B
  0
LAYOUT
  5
22
102
{ACAD_REACTORS
330
1A
102
}
330
1A
100
AcDbPlotSettings
  1

  2
none_device
  4

  6

 40
0.0
 41
0.0
 42
0.0
 43
0.0
 44
0.0
 45
0.0
 46
0.0
 47
0.0
 48
0.0
 49
0.0
140
0.0
141
0.0
142
1.0
143
1.0
 70
  1712
 72
     0
 73
     0
 74
     0
  7

 75
     0
147
1.0
148
0.0
149
0.0
100
AcDbLayout
  1
Model
 70
     1
 71
     0
 10
0.0
 20
0.0
 11
594.0
 21
420.0
 12
0.0
 22
0.0
 32
0.0
 14
0.0
 24
0.0
 34
0.0
 15
594.0
 25
420.0
 35
0.0
146
0.0
 13
0.0
 23
0.0
 33
0.0
 16
1.0
 26
0.0
 36
0.0
 17
0.0
 27
1.0
 37
0.0
 76
     0
330
1F
331
29
  0
MATERIAL
  5
3D
102
{ACAD_REACTORS
330
3B
102
}
102
{ACAD_XDICTIONARY
360
F6
102
}
330
3B
100
AcDbMaterial
  1
ByBlock
  0
MATERIAL
  5
3C
102
{ACAD_REACTORS
330
3B
102
}
102
{ACAD_XDICTIONARY
360
F4
102
}
330
3B
100
AcDbMaterial
  1
ByLayer
  0
MATERIAL
  5
3E
102
{ACAD_REACTORS
330
3B
102
}
102
{ACAD_XDICTIONARY
360
F8
102
}
330
3B
100
AcDbMaterial
  1
Global
  0
MLINESTYLE
  5
18
102
{ACAD_REACTORS
330
17
102
}
330
17
100
AcDbMlineStyle
  2
Standard
 70
     0
  3

 62
   256
 51
90.0
 52
90.0
 71
     2
 49
0.5
 62
   256
  6
BYLAYER
 49
-0.5
 62
   256
  6
BYLAYER
  0
ACDBPLACEHOLDER
  5
F
102
{ACAD_REACTORS
330
E
102
}
330
E
  0
VISUALSTYLE
  5
2F
102
{ACAD_REACTORS
330
2A
102
}
102
{ACAD_XDICTIONARY
360
DC
102
}
330
2A
100
AcDbVisualStyle
  2
2dWireframe
 70
     4
 71
     0
 72
     2
 73
     0
 90
        0
 40
-0.6
 41
-30.0
 62
     5
 63
     7
 74
     1
 91
        4
 64
     7
 65
   257
 75
     1
175
     1
 42
1.0
 92
        0
 66
   257
 43
1.0
 76
     1
 77
     6
 78
     2
 67
     7
 79
     5
170
     0
171
     0
290
     0
174
     0
 93
        1
 44
0.0
173
     0
291
     0
 45
0.0
1001
ACAD
1000
AcDbSavedByObjectVersion
1070
     0
  0
VISUALSTYLE
  5
31
102
{ACAD_REACTORS
330
2A
102
}
102
{ACAD_XDICTIONARY
360
E0
102
}
330
2A
100
AcDbVisualStyle
  2
3D Hidden
 70
     6
 71
     1
 72
     2
 73
     2
 90
        0
 40
-0.6
 41
-30.0
 62
     5
 63
     7
 74
     2
 91
        2
 64
     7
 65
   257
 75
     2
175
     1
 42
40.0
 92
        0
 66
   257
 43
1.0
 76
     1
 77
     6
 78
     2
 67
     7
 79
     3
170
     0
171
     0
290
     0
174
     0
 93
        1
 44
0.0
173
     0
291
     0
 45
0.0
1001
ACAD
1000
AcDbSavedByObjectVersion
1070
     0
  0
VISUALSTYLE
  5
30
102
{ACAD_REACTORS
330
2A
102
}
102
{ACAD_XDICTIONARY
360
DE
102
}
330
2A
100
AcDbVisualStyle
  2
3dWireframe
 70
     5
 71
     0
 72
     2
 73
     0
 90
        0
 40
-0.6
 41
-30.0
 62
     5
 63
     7
 74
     1
 91
        4
 64
     7
 65
   257
 75
     1
175
     1
 42
1.0
 92
        0
 66
   257
 43
1.0
 76
     1
 77
     6
 78
     2
 67
     7
 79
     5
170
     0
171
     0
290
     0
174
     0
 93
        1
 44
0.0
173
     0
291
     0
 45
0.0
1001
ACAD
1000
AcDbSavedByObjectVersion
1070
     0
  0
VISUALSTYLE
  5
32
102
{ACAD_REACTORS
330
2A
102
}
102
{ACAD_XDICTIONARY
360
E2
102
}
330
2A
100
AcDbVisualStyle
  2
Basic
 70
     7
 71
     1
 72
     0
 73
     1
 90
        0
 40
-0.6
 41
-30.0
 62
     5
 63
     7
 74
     0
 91
        4
 64
     7
 65
   257
 75
     1
175
     1
 42
1.0
 92
        8
 66
     7
 43
1.0
 76
     1
 77
     6
 78
     2
 67
     7
 79
     5
170
     0
171
     0
290
     0
174
     0
 93
        1
 44
0.0
173
     0
291
     1
 45
0.0
1001
ACAD
1000
AcDbSavedByObjectVersion
1070
     0
  0
VISUALSTYLE
  5
36
102
{ACAD_REACTORS
330
2A
102
}
102
{ACAD_XDICTIONARY
360
EA
102
}
330
2A
100
AcDbVisualStyle
  2
Brighten
 70
    12
 71
     2
 72
     2
 73
     0
 90
        0
 40
-0.6
 41
-30.0
 62
     5
 63
     7
 74
     1
 91
        4
 64
     7
 65
   257
 75
     1
175
     1
 42
1.0
 92
        8
 66
     7
 43
1.0
 76
     1
 77
     6
 78
     2
 67
     7
 79
     5
170
     0
171
     0
290
     0
174
     0
 93
        1
 44
50.0
173
     0
291
     1
 45
0.0
1001
ACAD
1000
AcDbSavedByObjectVersion
1070
     0
  0
VISUALSTYLE
  5
3A
102
{ACAD_REACTORS
330
2A
102
}
102
{ACAD_XDICTIONARY
360
F2
102
}
330
2A
100
AcDbVisualStyle
  2
ColorChange
 70
    16
 71
     2
 72
     2
 73
     3
 90
        0
 40
-0.6
 41
-30.0
 62
     5
 63
     8
 74
     1
 91
        4
 64
     7
 65
   257
 75
     1
175
     1
 42
1.0
 92
        8
 66
     8
 43
1.0
 76
     1
 77
     6
 78
     2
 67
     7
 79
     5
170
     0
171
     0
290
     0
174
     0
 93
        1
 44
0.0
173
     0
291
     1
 45
0.0
1001
ACAD
1000
AcDbSavedByObjectVersion
1070
     0
  0
VISUALSTYLE
  5
34
102
{ACAD_REACTORS
330
2A
102
}
102
{ACAD_XDICTIONARY
360
E6
102
}
330
2A
100
AcDbVisualStyle
  2
Conceptual
 70
     9
 71
     3
 72
     2
 73
     0
 90
        0
 40
-0.6
 41
-30.0
 62
     5
 63
     7
 74
     2
 91
        2
 64
     7
 65
   257
 75
     1
175
     1
 42
40.0
 92
        8
 66
     7
 43
1.0
 76
     1
 77
     6
 78
     2
 67
     7
 79
     3
170
     0
171
     0
290
     0
174
     0
 93
        1
 44
0.0
173
     0
291
     0
 45
0.0
1001
ACAD
1000
AcDbSavedByObjectVersion
1070
     0
  0
VISUALSTYLE
  5
35
102
{ACAD_REACTORS
330
2A
102
}
102
{ACAD_XDICTIONARY
360
E8
102
}
330
2A
100
AcDbVisualStyle
  2
Dim
 70
    11
 71
     2
 72
     2
 73
     0
 90
        0
 40
-0.6
 41
-30.0
 62
     5
 63
     7
 74
     1
 91
        4
 64
     7
 65
   257
 75
     1
175
     1
 42
1.0
 92
        8
 66
     7
 43
1.0
 76
     1
 77
     6
 78
     2
 67
     7
 79
     5
170
     0
171
     0
290
     0
174
     0
 93
        1
 44
-50.0
173
     0
291
     1
 45
0.0
1001
ACAD
1000
AcDbSavedByObjectVersion
1070
     0
  0
VISUALSTYLE
  5
39
102
{ACAD_REACTORS
330
2A
102
}
102
{ACAD_XDICTIONARY
360
F0
102
}
330
2A
100
AcDbVisualStyle
  2
Facepattern
 70
    15
 71
     2
 72
     2
 73
     0
 90
        0
 40
-0.6
 41
-30.0
 62
     5
 63
     7
 74
     1
 91
        4
 64
     7
 65
   257
 75
     1
175
     1
 42
1.0
 92
        8
 66
     7
 43
1.0
 76
     1
 77
     6
 78
     2
 67
     7
 79
     5
170
     0
171
     0
290
     0
174
     0
 93
        1
 44
0.0
173
     0
291
     1
 45
0.0
1001
ACAD
1000
AcDbSavedByObjectVersion
1070
     0
  0
VISUALSTYLE
  5
2B
102
{ACAD_REACTORS
330
2A
102
}
102
{ACAD_XDICTIONARY
360
D4
102
}
330
2A
100
AcDbVisualStyle
  2
Flat
 70
     0
 71
     2
 72
     1
 73
     1
 90
        2
 40
-0.6
 41
30.0
 62
     5
 63
     7
 74
     0
 91
        4
 64
     7
 65
   257
 75
     1
175
     1
 42
1.0
 92
        8
 66
     7
 43
1.0
 76
     1
 77
     6
 78
     2
 67
     7
 79
     5
170
     0
171
     0
290
     0
174
     0
 93
       13
 44
0.0
173
     0
291
     1
 45
0.0
1001
ACAD
1000
AcDbSavedByObjectVersion
1070
     0
  0
VISUALSTYLE
  5
2C
102
{ACAD_REACTORS
330
2A
102
}
102
{ACAD_XDICTIONARY
360
D6
102
}
330
2A
100
AcDbVisualStyle
  2
FlatWithEdges
 70
     1
 71
     2
 72
     1
 73
     1
 90
        2
 40
-0.6
 41
30.0
 62
     5
 63
     7
 74
     1
 91
        4
 64
     7
 65
   257
 75
     1
175
     1
 42
1.0
 92
        0
 66
   257
 43
1.0
 76
     1
 77
     6
 78
     2
 67
     7
 79
     5
170
     0
171
     0
290
     0
174
     0
 93
       13
 44
0.0
173
     0
291
     1
 45
0.0
1001
ACAD
1000
AcDbSavedByObjectVersion
1070
     0
  0
VISUALSTYLE
  5
2D
102
{ACAD_REACTORS
330
2A
102
}
102
{ACAD_XDICTIONARY
360
D8
102
}
330
2A
100
AcDbVisualStyle
  2
Gouraud
 70
     2
 71
     2
 72
     2
 73
     1
 90
        2
 40
-0.6
 41
30.0
 62
     5
 63
     7
 74
     0
 91
        4
 64
     7
 65
   257
 75
     1
175
     1
 42
1.0
 92
        0
 66
     7
 43
1.0
 76
     1
 77
     6
 78
     2
 67
     7
 79
     5
170
     0
171
     0
290
     0
174
     0
 93
       13
 44
0.0
173
     0
291
     1
 45
0.0
1001
ACAD
1000
AcDbSavedByObjectVersion
1070
     0
  0
VISUALSTYLE
  5
2E
102
{ACAD_REACTORS
330
2A
102
}
102
{ACAD_XDICTIONARY
360
DA
102
}
330
2A
100
AcDbVisualStyle
  2
GouraudWithEdges
 70
     3
 71
     2
 72
     2
 73
     1
 90
        2
 40
-0.6
 41
30.0
 62
     5
 63
     7
 74
     1
 91
        4
 64
     7
 65
   257
 75
     1
175
     1
 42
1.0
 92
        0
 66
   257
 43
1.0
 76
     1
 77
     6
 78
     2
 67
     7
 79
     5
170
     0
171
     0
290
     0
174
     0
 93
       13
 44
0.0
173
     0
291
     1
 45
0.0
1001
ACAD
1000
AcDbSavedByObjectVersion
1070
     0
  0
VISUALSTYLE
  5
38
102
{ACAD_REACTORS
330
2A
102
}
102
{ACAD_XDICTIONARY
360
EE
102
}
330
2A
100
AcDbVisualStyle
  2
Linepattern
 70
    14
 71
     2
 72
     2
 73
     0
 90
        0
 40
-0.6
 41
-30.0
 62
     5
 63
     7
 74
     1
 91
        4
 64
     7
 65
   257
 75
     7
175
     7
 42
1.0
 92
        8
 66
     7
 43
1.0
 76
     1
 77
     6
 78
     2
 67
     7
 79
     5
170
     0
171
     0
290
     0
174
     0
 93
        1
 44
0.0
173
     0
291
     1
 45
0.0
1001
ACAD
1000
AcDbSavedByObjectVersion
1070
     0
  0
VISUALSTYLE
  5
33
102
{ACAD_REACTORS
330
2A
102
}
102
{ACAD_XDICTIONARY
360
E4
102
}
330
2A
100
AcDbVisualStyle
  2
Realistic
 70
     8
 71
     2
 72
     2
 73
     0
 90
        0
 40
-0.6
 41
-30.0
 62
     5
 63
     7
 74
     1
 91
        0
 64
     7
 65
   257
 75
     1
175
     1
 42
1.0
 92
        8
 66
     8
 43
1.0
 76
     1
 77
     6
 78
     2
 67
     7
 79
     5
170
     0
171
     0
290
     0
174
     0
 93
       13
 44
0.0
173
     0
291
     0
 45
0.0
1001
ACAD
1000
AcDbSavedByObjectVersion
1070
     0
  0
VISUALSTYLE
  5
37
102
{ACAD_REACTORS
330
2A
102
}
102
{ACAD_XDICTIONARY
360
EC
102
}
330
2A
100
AcDbVisualStyle
  2
Thicken
 70
    13
 71
     2
 72
     2
 73
     0
 90
        0
 40
-0.6
 41
-30.0
 62
     5
 63
     7
 74
     1
 91
        4
 64
     7
 65
   257
 75
     1
175
     1
 42
1.0
 92
       12
 66
     7
 43
1.0
 76
     1
 77
     6
 78
     2
 67
     7
 79
     5
170
     0
171
     0
290
     0
174
     0
 93
        1
 44
0.0
173
     0
291
     1
 45
0.0
1001
ACAD
1000
AcDbSavedByObjectVersion
1070
     0
  0
DICTIONARYVAR
  5
D2
102
{ACAD_REACTORS
330
CD
102
}
330
CD
100
DictionaryVariables
280
     0
  1
2
  0
DICTIONARYVAR
  5
D3
102
{ACAD_REACTORS
330
CD
102
}
330
CD
100
DictionaryVariables
280
     0
  1
1
  0
DICTIONARYVAR
  5
D1
102
{ACAD_REACTORS
330
CD
102
}
330
CD
100
DictionaryVariables
280
     0
  1
80.000000
  0
DICTIONARYVAR
  5
D0
102
{ACAD_REACTORS
330
CD
102
}
330
CD
100
DictionaryVariables
280
     0
  1
5.000000
  0
DICTIONARY
  5
F6
330
3D
100
AcDbDictionary
280
     1
281
     1
  3
ACAD_XREC_ROUNDTRIP
360
F7
  0
DICTIONARY
  5
F4
330
3C
100
AcDbDictionary
280
     1
281
     1
  3
ACAD_XREC_ROUNDTRIP
360
F5
  0
DICTIONARY
  5
F8
330
3E
100
AcDbDictionary
280
     1
281
     1
  3
ACAD_XREC_ROUNDTRIP
360
F9
  0
DICTIONARY
  5
DC
330
2F
100
AcDbDictionary
280
     1
281
     1
  3
ACAD_XREC_ROUNDTRIP
360
DD
  0
DICTIONARY
  5
E0
330
31
100
AcDbDictionary
280
     1
281
     1
  3
ACAD_XREC_ROUNDTRIP
360
E1
  0
DICTIONARY
  5
DE
330
30
100
AcDbDictionary
280
     1
281
     1
  3
ACAD_XREC_ROUNDTRIP
360
DF
  0
DICTIONARY
  5
E2
330
32
100
AcDbDictionary
280
     1
281
     1
  3
ACAD_XREC_ROUNDTRIP
360
E3
  0
DICTIONARY
  5
EA
330
36
100
AcDbDictionary
280
     1
281
     1
  3
ACAD_XREC_ROUNDTRIP
360
EB
  0
DICTIONARY
  5
F2
330
3A
100
AcDbDictionary
280
     1
281
     1
  3
ACAD_XREC_ROUNDTRIP
360
F3
  0
DICTIONARY
  5
E6
330
34
100
AcDbDictionary
280
     1
281
     1
  3
ACAD_XREC_ROUNDTRIP
360
E7
  0
DICTIONARY
  5
E8
330
35
100
AcDbDictionary
280
     1
281
     1
  3
ACAD_XREC_ROUNDTRIP
360
E9
  0
DICTIONARY
  5
F0
330
39
100
AcDbDictionary
280
     1
281
     1
  3
ACAD_XREC_ROUNDTRIP
360
F1
  0
DICTIONARY
  5
D4
330
2B
100
AcDbDictionary
280
     1
281
     1
  3
ACAD_XREC_ROUNDTRIP
360
D5
  0
DICTIONARY
  5
D6
330
2C
100
AcDbDictionary
280
     1
281
     1
  3
ACAD_XREC_ROUNDTRIP
360
D7
  0
DICTIONARY
  5
D8
330
2D
100
AcDbDictionary
280
     1
281
     1
  3
ACAD_XREC_ROUNDTRIP
360
D9
  0
DICTIONARY
  5
DA
330
2E
100
AcDbDictionary
280
     1
281
     1
  3
ACAD_XREC_ROUNDTRIP
360
DB
  0
DICTIONARY
  5
EE
330
38
100
AcDbDictionary
280
     1
281
     1
  3
ACAD_XREC_ROUNDTRIP
360
EF
  0
DICTIONARY
  5
E4
330
33
100
AcDbDictionary
280
     1
281
     1
  3
ACAD_XREC_ROUNDTRIP
360
E5
  0
DICTIONARY
  5
EC
330
37
100
AcDbDictionary
280
     1
281
     1
  3
ACAD_XREC_ROUNDTRIP
360
ED
  0
XRECORD
  5
F7
102
{ACAD_REACTORS
330
F6
102
}
330
F6
100
AcDbXrecord
280
     1
102
MATERIAL
148
0.0
149
0.0
149
0.0
 93
        0
 94
      127
282
     0
 72
     1
 77
     1
171
     1
175
     1
179
     1
273
     0
  0
XRECORD
  5
F5
102
{ACAD_REACTORS
330
F4
102
}
330
F4
100
AcDbXrecord
280
     1
102
MATERIAL
148
0.0
149
0.0
149
0.0
 93
        0
 94
      127
282
     0
 72
     1
 77
     1
171
     1
175
     1
179
     1
273
     0
  0
XRECORD
  5
F9
102
{ACAD_REACTORS
330
F8
102
}
330
F8
100
AcDbXrecord
280
     1
102
MATERIAL
148
0.0
149
0.0
149
0.0
 93
        0
 94
      127
282
     0
 72
     1
 77
     1
171
     1
175
     1
179
     1
273
     0
  0
XRECORD
  5
DD
102
{ACAD_REACTORS
330
DC
102
}
330
DC
100
AcDbXrecord
280
     1
102
RTVSPropertyOp0
 70
     1
102
RTVSPropertyOp1
 70
     1
102
RTVSPropertyOp2
 70
     1
102
RTVSPropertyOp3
 70
     1
102
RTVSPropertyOp4
 70
     1
102
RTVSPropertyOp5
 70
     1
102
RTVSPropertyOp6
 70
     1
102
RTVSPropertyOp7
 70
     1
102
RTVSPropertyOp8
 70
     1
102
RTVSPropertyOp9
 70
     1
102
RTVSPropertyOp10
 70
     1
102
RTVSPropertyOp11
 70
     1
102
RTVSPropertyOp12
 70
     1
102
RTVSPropertyOp13
 70
     1
102
RTVSPropertyOp14
 70
     1
102
RTVSPropertyOp15
 70
     1
102
RTVSPropertyOp16
 70
     1
102
RTVSPropertyOp17
 70
     1
102
RTVSPropertyOp18
 70
     1
102
RTVSPropertyOp19
 70
     1
102
RTVSPropertyOp20
 70
     1
102
RTVSPropertyOp21
 70
     1
102
RTVSPropertyOp22
 70
     1
102
RTVSPropertyOp23
 70
     1
102
RTVSPropertyOp24
 70
     1
102
RTVSPropertyOp25
 70
     1
102
RTVSPropertyOp26
 70
     1
102
RTVSPropertyOp27
 70
     1
102
RTVSPropertyOp28
 70
     1
102
RTVSPropertyOp29
 70
     1
102
RTVSPropertyOp30
 70
     1
102
RTVSPropertyOp31
 70
     1
102
RTVSPropertyOp32
 70
     1
  0
XRECORD
  5
E1
102
{ACAD_REACTORS
330
E0
102
}
330
E0
100
AcDbXrecord
280
     1
102
RTVSPropertyOp0
 70
     1
102
RTVSPropertyOp1
 70
     1
102
RTVSPropertyOp2
 70
     1
102
RTVSPropertyOp3
 70
     1
102
RTVSPropertyOp4
 70
     1
102
RTVSPropertyOp5
 70
     1
102
RTVSPropertyOp6
 70
     1
102
RTVSPropertyOp7
 70
     1
102
RTVSPropertyOp8
 70
     1
102
RTVSPropertyOp9
 70
     1
102
RTVSPropertyOp10
 70
     1
102
RTVSPropertyOp11
 70
     1
102
RTVSPropertyOp12
 70
     1
102
RTVSPropertyOp13
 70
     1
102
RTVSPropertyOp14
 70
     1
102
RTVSPropertyOp15
 70
     1
102
RTVSPropertyOp16
 70
     1
102
RTVSPropertyOp17
 70
     1
102
RTVSPropertyOp18
 70
     1
102
RTVSPropertyOp19
 70
     1
102
RTVSPropertyOp20
 70
     1
102
RTVSPropertyOp21
 70
     1
102
RTVSPropertyOp22
 70
     1
102
RTVSPropertyOp23
 70
     1
102
RTVSPropertyOp24
 70
     1
102
RTVSPropertyOp25
 70
     1
102
RTVSPropertyOp26
 70
     1
102
RTVSPropertyOp27
 70
     1
102
RTVSPropertyOp28
 70
     1
102
RTVSPropertyOp29
 70
     1
102
RTVSPropertyOp30
 70
     1
102
RTVSPropertyOp31
 70
     1
102
RTVSPropertyOp32
 70
     1
  0
XRECORD
  5
DF
102
{ACAD_REACTORS
330
DE
102
}
330
DE
100
AcDbXrecord
280
     1
102
RTVSPropertyOp0
 70
     1
102
RTVSPropertyOp1
 70
     1
102
RTVSPropertyOp2
 70
     1
102
RTVSPropertyOp3
 70
     1
102
RTVSPropertyOp4
 70
     1
102
RTVSPropertyOp5
 70
     1
102
RTVSPropertyOp6
 70
     1
102
RTVSPropertyOp7
 70
     1
102
RTVSPropertyOp8
 70
     1
102
RTVSPropertyOp9
 70
     1
102
RTVSPropertyOp10
 70
     1
102
RTVSPropertyOp11
 70
     1
102
RTVSPropertyOp12
 70
     1
102
RTVSPropertyOp13
 70
     1
102
RTVSPropertyOp14
 70
     1
102
RTVSPropertyOp15
 70
     1
102
RTVSPropertyOp16
 70
     1
102
RTVSPropertyOp17
 70
     1
102
RTVSPropertyOp18
 70
     1
102
RTVSPropertyOp19
 70
     1
102
RTVSPropertyOp20
 70
     1
102
RTVSPropertyOp21
 70
     1
102
RTVSPropertyOp22
 70
     1
102
RTVSPropertyOp23
 70
     1
102
RTVSPropertyOp24
 70
     1
102
RTVSPropertyOp25
 70
     1
102
RTVSPropertyOp26
 70
     1
102
RTVSPropertyOp27
 70
     1
102
RTVSPropertyOp28
 70
     1
102
RTVSPropertyOp29
 70
     1
102
RTVSPropertyOp30
 70
     1
102
RTVSPropertyOp31
 70
     1
102
RTVSPropertyOp32
 70
     1
  0
XRECORD
  5
E3
102
{ACAD_REACTORS
330
E2
102
}
330
E2
100
AcDbXrecord
280
     1
102
RTVSPropertyOp0
 70
     1
102
RTVSPropertyOp1
 70
     1
102
RTVSPropertyOp2
 70
     1
102
RTVSPropertyOp3
 70
     1
102
RTVSPropertyOp4
 70
     1
102
RTVSPropertyOp5
 70
     1
102
RTVSPropertyOp6
 70
     1
102
RTVSPropertyOp7
 70
     1
102
RTVSPropertyOp8
 70
     1
102
RTVSPropertyOp9
 70
     1
102
RTVSPropertyOp10
 70
     1
102
RTVSPropertyOp11
 70
     1
102
RTVSPropertyOp12
 70
     1
102
RTVSPropertyOp13
 70
     1
102
RTVSPropertyOp14
 70
     1
102
RTVSPropertyOp15
 70
     1
102
RTVSPropertyOp16
 70
     1
102
RTVSPropertyOp17
 70
     1
102
RTVSPropertyOp18
 70
     1
102
RTVSPropertyOp19
 70
     1
102
RTVSPropertyOp20
 70
     1
102
RTVSPropertyOp21
 70
     1
102
RTVSPropertyOp22
 70
     1
102
RTVSPropertyOp23
 70
     1
102
RTVSPropertyOp24
 70
     1
102
RTVSPropertyOp25
 70
     1
102
RTVSPropertyOp26
 70
     1
102
RTVSPropertyOp27
 70
     1
102
RTVSPropertyOp28
 70
     1
102
RTVSPropertyOp29
 70
     1
102
RTVSPropertyOp30
 70
     1
102
RTVSPropertyOp31
 70
     1
102
RTVSPropertyOp32
 70
     1
  0
XRECORD
  5
EB
102
{ACAD_REACTORS
330
EA
102
}
330
EA
100
AcDbXrecord
280
     1
102
RTVSPropertyOp0
 70
     1
102
RTVSPropertyOp1
 70
     1
102
RTVSPropertyOp2
 70
     1
102
RTVSPropertyOp3
 70
     1
102
RTVSPropertyOp4
 70
     1
102
RTVSPropertyOp5
 70
     1
102
RTVSPropertyOp6
 70
     1
102
RTVSPropertyOp7
 70
     1
102
RTVSPropertyOp8
 70
     1
102
RTVSPropertyOp9
 70
     1
102
RTVSPropertyOp10
 70
     1
102
RTVSPropertyOp11
 70
     1
102
RTVSPropertyOp12
 70
     1
102
RTVSPropertyOp13
 70
     1
102
RTVSPropertyOp14
 70
     1
102
RTVSPropertyOp15
 70
     1
102
RTVSPropertyOp16
 70
     1
102
RTVSPropertyOp17
 70
     1
102
RTVSPropertyOp18
 70
     1
102
RTVSPropertyOp19
 70
     1
102
RTVSPropertyOp20
 70
     1
102
RTVSPropertyOp21
 70
     1
102
RTVSPropertyOp22
 70
     1
102
RTVSPropertyOp23
 70
     1
102
RTVSPropertyOp24
 70
     1
102
RTVSPropertyOp25
 70
     1
102
RTVSPropertyOp26
 70
     1
102
RTVSPropertyOp27
 70
     1
102
RTVSPropertyOp28
 70
     1
102
RTVSPropertyOp29
 70
     1
102
RTVSPropertyOp30
 70
     1
102
RTVSPropertyOp31
 70
     1
102
RTVSPropertyOp32
 70
     1
  0
XRECORD
  5
F3
102
{ACAD_REACTORS
330
F2
102
}
330
F2
100
AcDbXrecord
280
     1
102
RTVSPropertyOp0
 70
     1
102
RTVSPropertyOp1
 70
     1
102
RTVSPropertyOp2
 70
     1
102
RTVSPropertyOp3
 70
     1
102
RTVSPropertyOp4
 70
     1
102
RTVSPropertyOp5
 70
     1
102
RTVSPropertyOp6
 70
     1
102
RTVSPropertyOp7
 70
     1
102
RTVSPropertyOp8
 70
     1
102
RTVSPropertyOp9
 70
     1
102
RTVSPropertyOp10
 70
     1
102
RTVSPropertyOp11
 70
     1
102
RTVSPropertyOp12
 70
     1
102
RTVSPropertyOp13
 70
     1
102
RTVSPropertyOp14
 70
     1
102
RTVSPropertyOp15
 70
     1
102
RTVSPropertyOp16
 70
     1
102
RTVSPropertyOp17
 70
     1
102
RTVSPropertyOp18
 70
     1
102
RTVSPropertyOp19
 70
     1
102
RTVSPropertyOp20
 70
     1
102
RTVSPropertyOp21
 70
     1
102
RTVSPropertyOp22
 70
     1
102
RTVSPropertyOp23
 70
     1
102
RTVSPropertyOp24
 70
     1
102
RTVSPropertyOp25
 70
     1
102
RTVSPropertyOp26
 70
     1
102
RTVSPropertyOp27
 70
     1
102
RTVSPropertyOp28
 70
     1
102
RTVSPropertyOp29
 70
     1
102
RTVSPropertyOp30
 70
     1
102
RTVSPropertyOp31
 70
     1
102
RTVSPropertyOp32
 70
     1
  0
XRECORD
  5
E7
102
{ACAD_REACTORS
330
E6
102
}
330
E6
100
AcDbXrecord
280
     1
102
RTVSPropertyOp0
 70
     1
102
RTVSPropertyOp1
 70
     1
102
RTVSPropertyOp2
 70
     1
102
RTVSPropertyOp3
 70
     1
102
RTVSPropertyOp4
 70
     1
102
RTVSPropertyOp5
 70
     1
102
RTVSPropertyOp6
 70
     1
102
RTVSPropertyOp7
 70
     1
102
RTVSPropertyOp8
 70
     1
102
RTVSPropertyOp9
 70
     1
102
RTVSPropertyOp10
 70
     1
102
RTVSPropertyOp11
 70
     1
102
RTVSPropertyOp12
 70
     1
102
RTVSPropertyOp13
 70
     1
102
RTVSPropertyOp14
 70
     1
102
RTVSPropertyOp15
 70
     1
102
RTVSPropertyOp16
 70
     1
102
RTVSPropertyOp17
 70
     1
102
RTVSPropertyOp18
 70
     1
102
RTVSPropertyOp19
 70
     1
102
RTVSPropertyOp20
 70
     1
102
RTVSPropertyOp21
 70
     1
102
RTVSPropertyOp22
 70
     1
102
RTVSPropertyOp23
 70
     1
102
RTVSPropertyOp24
 70
     1
102
RTVSPropertyOp25
 70
     1
102
RTVSPropertyOp26
 70
     1
102
RTVSPropertyOp27
 70
     1
102
RTVSPropertyOp28
 70
     1
102
RTVSPropertyOp29
 70
     1
102
RTVSPropertyOp30
 70
     1
102
RTVSPropertyOp31
 70
     1
102
RTVSPropertyOp32
 70
     1
  0
XRECORD
  5
E9
102
{ACAD_REACTORS
330
E8
102
}
330
E8
100
AcDbXrecord
280
     1
102
RTVSPropertyOp0
 70
     1
102
RTVSPropertyOp1
 70
     1
102
RTVSPropertyOp2
 70
     1
102
RTVSPropertyOp3
 70
     1
102
RTVSPropertyOp4
 70
     1
102
RTVSPropertyOp5
 70
     1
102
RTVSPropertyOp6
 70
     1
102
RTVSPropertyOp7
 70
     1
102
RTVSPropertyOp8
 70
     1
102
RTVSPropertyOp9
 70
     1
102
RTVSPropertyOp10
 70
     1
102
RTVSPropertyOp11
 70
     1
102
RTVSPropertyOp12
 70
     1
102
RTVSPropertyOp13
 70
     1
102
RTVSPropertyOp14
 70
     1
102
RTVSPropertyOp15
 70
     1
102
RTVSPropertyOp16
 70
     1
102
RTVSPropertyOp17
 70
     1
102
RTVSPropertyOp18
 70
     1
102
RTVSPropertyOp19
 70
     1
102
RTVSPropertyOp20
 70
     1
102
RTVSPropertyOp21
 70
     1
102
RTVSPropertyOp22
 70
     1
102
RTVSPropertyOp23
 70
     1
102
RTVSPropertyOp24
 70
     1
102
RTVSPropertyOp25
 70
     1
102
RTVSPropertyOp26
 70
     1
102
RTVSPropertyOp27
 70
     1
102
RTVSPropertyOp28
 70
     1
102
RTVSPropertyOp29
 70
     1
102
RTVSPropertyOp30
 70
     1
102
RTVSPropertyOp31
 70
     1
102
RTVSPropertyOp32
 70
     1
  0
XRECORD
  5
F1
102
{ACAD_REACTORS
330
F0
102
}
330
F0
100
AcDbXrecord
280
     1
102
RTVSPropertyOp0
 70
     1
102
RTVSPropertyOp1
 70
     1
102
RTVSPropertyOp2
 70
     1
102
RTVSPropertyOp3
 70
     1
102
RTVSPropertyOp4
 70
     1
102
RTVSPropertyOp5
 70
     1
102
RTVSPropertyOp6
 70
     1
102
RTVSPropertyOp7
 70
     1
102
RTVSPropertyOp8
 70
     1
102
RTVSPropertyOp9
 70
     1
102
RTVSPropertyOp10
 70
     1
102
RTVSPropertyOp11
 70
     1
102
RTVSPropertyOp12
 70
     1
102
RTVSPropertyOp13
 70
     1
102
RTVSPropertyOp14
 70
     1
102
RTVSPropertyOp15
 70
     1
102
RTVSPropertyOp16
 70
     1
102
RTVSPropertyOp17
 70
     1
102
RTVSPropertyOp18
 70
     1
102
RTVSPropertyOp19
 70
     1
102
RTVSPropertyOp20
 70
     1
102
RTVSPropertyOp21
 70
     1
102
RTVSPropertyOp22
 70
     1
102
RTVSPropertyOp23
 70
     1
102
RTVSPropertyOp24
 70
     1
102
RTVSPropertyOp25
 70
     1
102
RTVSPropertyOp26
 70
     1
102
RTVSPropertyOp27
 70
     1
102
RTVSPropertyOp28
 70
     1
102
RTVSPropertyOp29
 70
     1
102
RTVSPropertyOp30
 70
     1
102
RTVSPropertyOp31
 70
     1
102
RTVSPropertyOp32
 70
     1
  0
XRECORD
  5
D5
102
{ACAD_REACTORS
330
D4
102
}
330
D4
100
AcDbXrecord
280
     1
102
RTVSPropertyOp0
 70
     1
102
RTVSPropertyOp1
 70
     1
102
RTVSPropertyOp2
 70
     1
102
RTVSPropertyOp3
 70
     1
102
RTVSPropertyOp4
 70
     1
102
RTVSPropertyOp5
 70
     1
102
RTVSPropertyOp6
 70
     1
102
RTVSPropertyOp7
 70
     1
102
RTVSPropertyOp8
 70
     1
102
RTVSPropertyOp9
 70
     1
102
RTVSPropertyOp10
 70
     1
102
RTVSPropertyOp11
 70
     1
102
RTVSPropertyOp12
 70
     1
102
RTVSPropertyOp13
 70
     1
102
RTVSPropertyOp14
 70
     1
102
RTVSPropertyOp15
 70
     1
102
RTVSPropertyOp16
 70
     1
102
RTVSPropertyOp17
 70
     1
102
RTVSPropertyOp18
 70
     1
102
RTVSPropertyOp19
 70
     1
102
RTVSPropertyOp20
 70
     1
102
RTVSPropertyOp21
 70
     1
102
RTVSPropertyOp22
 70
     1
102
RTVSPropertyOp23
 70
     1
102
RTVSPropertyOp24
 70
     1
102
RTVSPropertyOp25
 70
     1
102
RTVSPropertyOp26
 70
     1
102
RTVSPropertyOp27
 70
     1
102
RTVSPropertyOp28
 70
     1
102
RTVSPropertyOp29
 70
     1
102
RTVSPropertyOp30
 70
     1
102
RTVSPropertyOp31
 70
     1
102
RTVSPropertyOp32
 70
     1
  0
XRECORD
  5
D7
102
{ACAD_REACTORS
330
D6
102
}
330
D6
100
AcDbXrecord
280
     1
102
RTVSPropertyOp0
 70
     1
102
RTVSPropertyOp1
 70
     1
102
RTVSPropertyOp2
 70
     1
102
RTVSPropertyOp3
 70
     1
102
RTVSPropertyOp4
 70
     1
102
RTVSPropertyOp5
 70
     1
102
RTVSPropertyOp6
 70
     1
102
RTVSPropertyOp7
 70
     1
102
RTVSPropertyOp8
 70
     1
102
RTVSPropertyOp9
 70
     1
102
RTVSPropertyOp10
 70
     1
102
RTVSPropertyOp11
 70
     1
102
RTVSPropertyOp12
 70
     1
102
RTVSPropertyOp13
 70
     1
102
RTVSPropertyOp14
 70
     1
102
RTVSPropertyOp15
 70
     1
102
RTVSPropertyOp16
 70
     1
102
RTVSPropertyOp17
 70
     1
102
RTVSPropertyOp18
 70
     1
102
RTVSPropertyOp19
 70
     1
102
RTVSPropertyOp20
 70
     1
102
RTVSPropertyOp21
 70
     1
102
RTVSPropertyOp22
 70
     1
102
RTVSPropertyOp23
 70
     1
102
RTVSPropertyOp24
 70
     1
102
RTVSPropertyOp25
 70
     1
102
RTVSPropertyOp26
 70
     1
102
RTVSPropertyOp27
 70
     1
102
RTVSPropertyOp28
 70
     1
102
RTVSPropertyOp29
 70
     1
102
RTVSPropertyOp30
 70
     1
102
RTVSPropertyOp31
 70
     1
102
RTVSPropertyOp32
 70
     1
  0
XRECORD
  5
D9
102
{ACAD_REACTORS
330
D8
102
}
330
D8
100
AcDbXrecord
280
     1
102
RTVSPropertyOp0
 70
     1
102
RTVSPropertyOp1
 70
     1
102
RTVSPropertyOp2
 70
     1
102
RTVSPropertyOp3
 70
     1
102
RTVSPropertyOp4
 70
     1
102
RTVSPropertyOp5
 70
     1
102
RTVSPropertyOp6
 70
     1
102
RTVSPropertyOp7
 70
     1
102
RTVSPropertyOp8
 70
     1
102
RTVSPropertyOp9
 70
     1
102
RTVSPropertyOp10
 70
     1
102
RTVSPropertyOp11
 70
     1
102
RTVSPropertyOp12
 70
     1
102
RTVSPropertyOp13
 70
     1
102
RTVSPropertyOp14
 70
     1
102
RTVSPropertyOp15
 70
     1
102
RTVSPropertyOp16
 70
     1
102
RTVSPropertyOp17
 70
     1
102
RTVSPropertyOp18
 70
     1
102
RTVSPropertyOp19
 70
     1
102
RTVSPropertyOp20
 70
     1
102
RTVSPropertyOp21
 70
     1
102
RTVSPropertyOp22
 70
     1
102
RTVSPropertyOp23
 70
     1
102
RTVSPropertyOp24
 70
     1
102
RTVSPropertyOp25
 70
     1
102
RTVSPropertyOp26
 70
     1
102
RTVSPropertyOp27
 70
     1
102
RTVSPropertyOp28
 70
     1
102
RTVSPropertyOp29
 70
     1
102
RTVSPropertyOp30
 70
     1
102
RTVSPropertyOp31
 70
     1
102
RTVSPropertyOp32
 70
     1
  0
XRECORD
  5
DB
102
{ACAD_REACTORS
330
DA
102
}
330
DA
100
AcDbXrecord
280
     1
102
RTVSPropertyOp0
 70
     1
102
RTVSPropertyOp1
 70
     1
102
RTVSPropertyOp2
 70
     1
102
RTVSPropertyOp3
 70
     1
102
RTVSPropertyOp4
 70
     1
102
RTVSPropertyOp5
 70
     1
102
RTVSPropertyOp6
 70
     1
102
RTVSPropertyOp7
 70
     1
102
RTVSPropertyOp8
 70
     1
102
RTVSPropertyOp9
 70
     1
102
RTVSPropertyOp10
 70
     1
102
RTVSPropertyOp11
 70
     1
102
RTVSPropertyOp12
 70
     1
102
RTVSPropertyOp13
 70
     1
102
RTVSPropertyOp14
 70
     1
102
RTVSPropertyOp15
 70
     1
102
RTVSPropertyOp16
 70
     1
102
RTVSPropertyOp17
 70
     1
102
RTVSPropertyOp18
 70
     1
102
RTVSPropertyOp19
 70
     1
102
RTVSPropertyOp20
 70
     1
102
RTVSPropertyOp21
 70
     1
102
RTVSPropertyOp22
 70
     1
102
RTVSPropertyOp23
 70
     1
102
RTVSPropertyOp24
 70
     1
102
RTVSPropertyOp25
 70
     1
102
RTVSPropertyOp26
 70
     1
102
RTVSPropertyOp27
 70
     1
102
RTVSPropertyOp28
 70
     1
102
RTVSPropertyOp29
 70
     1
102
RTVSPropertyOp30
 70
     1
102
RTVSPropertyOp31
 70
     1
102
RTVSPropertyOp32
 70
     1
  0
XRECORD
  5
EF
102
{ACAD_REACTORS
330
EE
102
}
330
EE
100
AcDbXrecord
280
     1
102
RTVSPropertyOp0
 70
     1
102
RTVSPropertyOp1
 70
     1
102
RTVSPropertyOp2
 70
     1
102
RTVSPropertyOp3
 70
     1
102
RTVSPropertyOp4
 70
     1
102
RTVSPropertyOp5
 70
     1
102
RTVSPropertyOp6
 70
     1
102
RTVSPropertyOp7
 70
     1
102
RTVSPropertyOp8
 70
     1
102
RTVSPropertyOp9
 70
     1
102
RTVSPropertyOp10
 70
     1
102
RTVSPropertyOp11
 70
     1
102
RTVSPropertyOp12
 70
     1
102
RTVSPropertyOp13
 70
     1
102
RTVSPropertyOp14
 70
     1
102
RTVSPropertyOp15
 70
     1
102
RTVSPropertyOp16
 70
     1
102
RTVSPropertyOp17
 70
     1
102
RTVSPropertyOp18
 70
     1
102
RTVSPropertyOp19
 70
     1
102
RTVSPropertyOp20
 70
     1
102
RTVSPropertyOp21
 70
     1
102
RTVSPropertyOp22
 70
     1
102
RTVSPropertyOp23
 70
     1
102
RTVSPropertyOp24
 70
     1
102
RTVSPropertyOp25
 70
     1
102
RTVSPropertyOp26
 70
     1
102
RTVSPropertyOp27
 70
     1
102
RTVSPropertyOp28
 70
     1
102
RTVSPropertyOp29
 70
     1
102
RTVSPropertyOp30
 70
     1
102
RTVSPropertyOp31
 70
     1
102
RTVSPropertyOp32
 70
     1
  0
XRECORD
  5
E5
102
{ACAD_REACTORS
330
E4
102
}
330
E4
100
AcDbXrecord
280
     1
102
RTVSPropertyOp0
 70
     1
102
RTVSPropertyOp1
 70
     1
102
RTVSPropertyOp2
 70
     1
102
RTVSPropertyOp3
 70
     1
102
RTVSPropertyOp4
 70
     1
102
RTVSPropertyOp5
 70
     1
102
RTVSPropertyOp6
 70
     1
102
RTVSPropertyOp7
 70
     1
102
RTVSPropertyOp8
 70
     1
102
RTVSPropertyOp9
 70
     1
102
RTVSPropertyOp10
 70
     1
102
RTVSPropertyOp11
 70
     1
102
RTVSPropertyOp12
 70
     1
102
RTVSPropertyOp13
 70
     1
102
RTVSPropertyOp14
 70
     1
102
RTVSPropertyOp15
 70
     1
102
RTVSPropertyOp16
 70
     1
102
RTVSPropertyOp17
 70
     1
102
RTVSPropertyOp18
 70
     1
102
RTVSPropertyOp19
 70
     1
102
RTVSPropertyOp20
 70
     1
102
RTVSPropertyOp21
 70
     1
102
RTVSPropertyOp22
 70
     1
102
RTVSPropertyOp23
 70
     1
102
RTVSPropertyOp24
 70
     1
102
RTVSPropertyOp25
 70
     1
102
RTVSPropertyOp26
 70
     1
102
RTVSPropertyOp27
 70
     1
102
RTVSPropertyOp28
 70
     1
102
RTVSPropertyOp29
 70
     1
102
RTVSPropertyOp30
 70
     1
102
RTVSPropertyOp31
 70
     1
102
RTVSPropertyOp32
 70
     1
  0
XRECORD
  5
ED
102
{ACAD_REACTORS
330
EC
102
}
330
EC
100
AcDbXrecord
280
     1
102
RTVSPropertyOp0
 70
     1
102
RTVSPropertyOp1
 70
     1
102
RTVSPropertyOp2
 70
     1
102
RTVSPropertyOp3
 70
     1
102
RTVSPropertyOp4
 70
     1
102
RTVSPropertyOp5
 70
     1
102
RTVSPropertyOp6
 70
     1
102
RTVSPropertyOp7
 70
     1
102
RTVSPropertyOp8
 70
     1
102
RTVSPropertyOp9
 70
     1
102
RTVSPropertyOp10
 70
     1
102
RTVSPropertyOp11
 70
     1
102
RTVSPropertyOp12
 70
     1
102
RTVSPropertyOp13
 70
     1
102
RTVSPropertyOp14
 70
     1
102
RTVSPropertyOp15
 70
     1
102
RTVSPropertyOp16
 70
     1
102
RTVSPropertyOp17
 70
     1
102
RTVSPropertyOp18
 70
     1
102
RTVSPropertyOp19
 70
     1
102
RTVSPropertyOp20
 70
     1
102
RTVSPropertyOp21
 70
     1
102
RTVSPropertyOp22
 70
     1
102
RTVSPropertyOp23
 70
     1
102
RTVSPropertyOp24
 70
     1
102
RTVSPropertyOp25
 70
     1
102
RTVSPropertyOp26
 70
     1
102
RTVSPropertyOp27
 70
     1
102
RTVSPropertyOp28
 70
     1
102
RTVSPropertyOp29
 70
     1
102
RTVSPropertyOp30
 70
     1
102
RTVSPropertyOp31
 70
     1
102
RTVSPropertyOp32
 70
     1
  0
ENDSEC
  0
EOF
