  0
SECTION
  2
HEADER
  9
$ACADVER
  1
AC1009
  9
$INSBASE
 10
   0.0000
 20
 660.0000
 30
    0.0
  9
$EXTMIN
 10
 -53.5000
 20
-115.5000
 30
   0.0000
  9
$EXTMAX
 10
2126.8283
 20
1143.7250
 30
   0.0000
  9
$LTSCALE
 40
1.00
  9
$PSLTSCALE
 70
1
  0
ENDSEC
  0
SECTION
  2
TABLES
  0
TABLE
  2
LTYPE
 70
  5
  0
LTYPE
  2
AUSGEZOGEN
 70
 64
  3
AUSGEZOGEN
 72
 65
 73
  0
 40
0.0
  0
LTYPE
  2
PUNKTIERT
 70
 64
  3
Gepunktet
 72
 65
 73
  2
 40
3.0000
 49
0.0
 49
-3.0000
  0
LTYPE
  2
STRICHLIERT
 70
 64
  3
Strichliert
 72
 65
 73
  2
 40
8.0000
 49
5.0000
 49
-3.0000
  0
LTYPE
  2
STRICHPUNKT
 70
 64
  3
Strichpunktet
 72
 65
 73
  4
 40
16.0000
 49
10.0000
 49
-3.0000
 49
0.0
 49
-3.0000
  0
LTYPE
  2
STRICHPUNKTPUNKT
 70
 64
  3
Strichpunktpunktet
 72
 65
 73
  6
 40
19.0000
 49
10.0000
 49
-3.0000
 49
0.0
 49
-3.0000
 49
0.0
 49
-3.0000
  0
ENDTAB
  0
TABLE
  2
LAYER
 70
7
  0
LAYER
  2
550
 70
  0
 62
  2
  6
AUSGEZOGEN
  0
LAYER
  2
510
 70
  0
 62
  2
  6
AUSGEZOGEN
  0
LAYER
  2
0
 70
  0
 62
  1
  6
AUSGEZOGEN
  0
LAYER
  2
200
 70
  0
 62
  7
  6
AUSGEZOGEN
  0
LAYER
  2
400
 70
  0
 62
  4
  6
AUSGEZOGEN
  0
LAYER
  2
410
 70
  0
 62
  6
  6
AUSGEZOGEN
  0
LAYER
  2
420
 70
  0
 62
  2
  6
AUSGEZOGEN
  0
ENDTAB
  0
TABLE
  2
STYLE
 70
  1
  0
STYLE
  2
STANDARD
 70
 64
 40
0.0
 41
1.0
 50
0.0
 71
  0
 42
30.0
  3
TXT8.SHX
  4

  0
ENDTAB
  0
ENDSEC
  0
SECTION
  2
ENTITIES
  0
TEXT
  8
400
 10
 668.7500
 20
 540.0000
 40
  40.5000
  1
EZ: 230V 50Hz 2KW (OKFF 377mm)
 50
   0.0000
 41
   0.8000
  7
STANDARD
  0
LINE
  8
400
  6
AUSGEZOGEN
 10
 655.2500
 20
 526.5000
 11
 488.0000
 21
 660.0000
  0
LINE
  8
400
  6
AUSGEZOGEN
 10
1411.6300
 20
 526.5000
 11
 655.2500
 21
 526.5000
  0
LINE
  8
400
  6
AUSGEZOGEN
 10
 488.0000
 20
 660.0000
 11
 488.0000
 21
 585.0000
  0
LINE
  8
400
  6
AUSGEZOGEN
 10
 488.0000
 20
 735.0000
 11
 488.0000
 21
 660.0000
  0
LINE
  8
400
  6
AUSGEZOGEN
 10
 413.0000
 20
 660.0000
 11
 488.0000
 21
 660.0000
  0
LINE
  8
400
  6
AUSGEZOGEN
 10
 563.0000
 20
 660.0000
 11
 488.0000
 21
 660.0000
  0
CIRCLE
  8
400
  6
AUSGEZOGEN
 10
 488.0000
 20
 660.0000
 40
  50.0000
  0
TEXT
  8
410
 10
 668.7500
 20
 420.0000
 40
  40.5000
  1
TWk: DN20   (OKFF 338mm)
 50
   0.0000
 41
   0.8000
  7
STANDARD
  0
LINE
  8
410
  6
AUSGEZOGEN
 10
 488.0000
 20
 660.0000
 11
 655.2500
 21
 406.5000
  0
LINE
  8
410
  6
AUSGEZOGEN
 10
1245.0700
 20
 406.5000
 11
 655.2500
 21
 406.5000
  0
LINE
  8
410
  6
AUSGEZOGEN
 10
 488.0000
 20
 660.0000
 11
 488.0000
 21
 585.0000
  0
LINE
  8
410
  6
AUSGEZOGEN
 10
 488.0000
 20
 735.0000
 11
 488.0000
 21
 660.0000
  0
LINE
  8
410
  6
AUSGEZOGEN
 10
 413.0000
 20
 660.0000
 11
 488.0000
 21
 660.0000
  0
LINE
  8
410
  6
AUSGEZOGEN
 10
 563.0000
 20
 660.0000
 11
 488.0000
 21
 660.0000
  0
CIRCLE
  8
410
  6
AUSGEZOGEN
 10
 488.0000
 20
 660.0000
 40
  50.0000
  0
TEXT
  8
420
 10
 668.7500
 20
 300.0000
 40
  40.5000
  1
A: DN20   (OKFF 100mm)
 50
   0.0000
 41
   0.8000
  7
STANDARD
  0
LINE
  8
420
  6
AUSGEZOGEN
 10
 488.0000
 20
 660.0000
 11
 655.2500
 21
 286.5000
  0
LINE
  8
420
  6
AUSGEZOGEN
 10
1163.9500
 20
 286.5000
 11
 655.2500
 21
 286.5000
  0
LINE
  8
420
  6
AUSGEZOGEN
 10
 488.0000
 20
 660.0000
 11
 488.0000
 21
 585.0000
  0
LINE
  8
420
  6
AUSGEZOGEN
 10
 488.0000
 20
 735.0000
 11
 488.0000
 21
 660.0000
  0
LINE
  8
420
  6
AUSGEZOGEN
 10
 413.0000
 20
 660.0000
 11
 488.0000
 21
 660.0000
  0
LINE
  8
420
  6
AUSGEZOGEN
 10
 563.0000
 20
 660.0000
 11
 488.0000
 21
 660.0000
  0
CIRCLE
  8
420
  6
AUSGEZOGEN
 10
 488.0000
 20
 660.0000
 40
  50.0000
  0
TEXT
  8
420
 10
 668.7500
 20
 180.0000
 40
  40.5000
  1
A: DN20   (OKFF 62mm)
 50
   0.0000
 41
   0.8000
  7
STANDARD
  0
LINE
  8
420
  6
AUSGEZOGEN
 10
 488.0000
 20
 660.0000
 11
 655.2500
 21
 166.5000
  0
LINE
  8
420
  6
AUSGEZOGEN
 10
1154.9500
 20
 166.5000
 11
 655.2500
 21
 166.5000
  0
LINE
  8
420
  6
AUSGEZOGEN
 10
 488.0000
 20
 660.0000
 11
 488.0000
 21
 585.0000
  0
LINE
  8
420
  6
AUSGEZOGEN
 10
 488.0000
 20
 735.0000
 11
 488.0000
 21
 660.0000
  0
LINE
  8
420
  6
AUSGEZOGEN
 10
 413.0000
 20
 660.0000
 11
 488.0000
 21
 660.0000
  0
LINE
  8
420
  6
AUSGEZOGEN
 10
 563.0000
 20
 660.0000
 11
 488.0000
 21
 660.0000
  0
CIRCLE
  8
420
  6
AUSGEZOGEN
 10
 488.0000
 20
 660.0000
 40
  50.0000
  0
LINE
  8
200
  6
AUSGEZOGEN
 10
   0.0000
 20
   0.0000
 11
 535.0000
 21
   0.0000
  0
LINE
  8
200
  6
AUSGEZOGEN
 10
   0.0000
 20
 660.0000
 11
   0.0000
 21
   0.0000
  0
LINE
  8
200
  6
AUSGEZOGEN
 10
 535.0000
 20
 660.0000
 11
   0.0000
 21
 660.0000
  0
LINE
  8
200
  6
AUSGEZOGEN
 10
 535.0000
 20
   0.0000
 11
 535.0000
 21
 660.0000
  0
ATTDEF
  8
550
 10
10.0
 20
100.0
 30
0.0
 40
30
  1
NOR-41326000001
  2
NO00056D
  3
HKI-Nummer
 70
1
  0
TEXT
  8
510
 10
10.0
 20
-45.0
 30
0.0
 40
30
  1
NOR-41326000001
 50
0.0
 41
1.0
  7
STANDARD
  0
ENDSEC
  0
EOF
