ISO-10303-21;
HEADER;
/* Generated by software containing ST-Developer
 * from STEP Tools, Inc. (www.steptools.com) 
 */

FILE_DESCRIPTION(
/* description */ ('K\X\FChlplatte (stille K\X\FChlung): K\X\E4lte ext
ern'),
/* implementation_level */ '2;1');

FILE_NAME(
/* name */ 
'C:\\Vault\\Designs\\Produkte\\Standardzeichnungen\\3D-AKE-00003106.st
p',
/* time_stamp */ '2021-09-30T11:25:25+02:00',
/* author */ ('maltrim.rexhaj'),
/* organization */ (''),
/* preprocessor_version */ 'ST-DEVELOPER v18',
/* originating_system */ 'Autodesk Inventor 2020',
/* authorisation */ '');

FILE_SCHEMA (('AUTOMOTIVE_DESIGN { 1 0 10303 214 3 1 1 }'));
ENDSEC;

DATA;
#10=MECHANICAL_DESIGN_GEOMETRIC_PRESENTATION_REPRESENTATION('',(#13),#634);
#11=SHAPE_REPRESENTATION_RELATIONSHIP('SRR','None',#641,#12);
#12=ADVANCED_BREP_SHAPE_REPRESENTATION('',(#14),#633);
#13=STYLED_ITEM('',(#650),#14);
#14=MANIFOLD_SOLID_BREP('Volumenk\X\F6rper2',#382);
#15=FACE_BOUND('',#65,.T.);
#16=FACE_BOUND('',#70,.T.);
#17=FACE_BOUND('',#85,.T.);
#18=PLANE('',#407);
#19=PLANE('',#408);
#20=PLANE('',#409);
#21=PLANE('',#410);
#22=PLANE('',#411);
#23=PLANE('',#412);
#24=PLANE('',#413);
#25=PLANE('',#414);
#26=PLANE('',#415);
#27=PLANE('',#416);
#28=PLANE('',#417);
#29=PLANE('',#418);
#30=PLANE('',#419);
#31=PLANE('',#420);
#32=PLANE('',#421);
#33=PLANE('',#422);
#34=PLANE('',#423);
#35=PLANE('',#424);
#36=PLANE('',#425);
#37=PLANE('',#426);
#38=PLANE('',#427);
#39=FACE_OUTER_BOUND('',#61,.T.);
#40=FACE_OUTER_BOUND('',#62,.T.);
#41=FACE_OUTER_BOUND('',#63,.T.);
#42=FACE_OUTER_BOUND('',#64,.T.);
#43=FACE_OUTER_BOUND('',#66,.T.);
#44=FACE_OUTER_BOUND('',#67,.T.);
#45=FACE_OUTER_BOUND('',#68,.T.);
#46=FACE_OUTER_BOUND('',#69,.T.);
#47=FACE_OUTER_BOUND('',#71,.T.);
#48=FACE_OUTER_BOUND('',#72,.T.);
#49=FACE_OUTER_BOUND('',#73,.T.);
#50=FACE_OUTER_BOUND('',#74,.T.);
#51=FACE_OUTER_BOUND('',#75,.T.);
#52=FACE_OUTER_BOUND('',#76,.T.);
#53=FACE_OUTER_BOUND('',#77,.T.);
#54=FACE_OUTER_BOUND('',#78,.T.);
#55=FACE_OUTER_BOUND('',#79,.T.);
#56=FACE_OUTER_BOUND('',#80,.T.);
#57=FACE_OUTER_BOUND('',#81,.T.);
#58=FACE_OUTER_BOUND('',#82,.T.);
#59=FACE_OUTER_BOUND('',#83,.T.);
#60=FACE_OUTER_BOUND('',#84,.T.);
#61=EDGE_LOOP('',(#261,#262,#263,#264,#265,#266));
#62=EDGE_LOOP('',(#267,#268));
#63=EDGE_LOOP('',(#269,#270,#271,#272));
#64=EDGE_LOOP('',(#273,#274,#275,#276));
#65=EDGE_LOOP('',(#277,#278,#279,#280));
#66=EDGE_LOOP('',(#281,#282,#283,#284));
#67=EDGE_LOOP('',(#285,#286,#287,#288));
#68=EDGE_LOOP('',(#289,#290,#291,#292));
#69=EDGE_LOOP('',(#293,#294,#295,#296));
#70=EDGE_LOOP('',(#297,#298,#299,#300));
#71=EDGE_LOOP('',(#301,#302,#303,#304));
#72=EDGE_LOOP('',(#305,#306,#307,#308));
#73=EDGE_LOOP('',(#309,#310,#311,#312));
#74=EDGE_LOOP('',(#313,#314,#315,#316));
#75=EDGE_LOOP('',(#317,#318,#319,#320));
#76=EDGE_LOOP('',(#321,#322,#323,#324));
#77=EDGE_LOOP('',(#325,#326,#327,#328));
#78=EDGE_LOOP('',(#329,#330,#331,#332));
#79=EDGE_LOOP('',(#333,#334,#335,#336));
#80=EDGE_LOOP('',(#337,#338,#339,#340));
#81=EDGE_LOOP('',(#341,#342,#343,#344));
#82=EDGE_LOOP('',(#345,#346,#347,#348));
#83=EDGE_LOOP('',(#349,#350,#351,#352));
#84=EDGE_LOOP('',(#353,#354,#355,#356));
#85=EDGE_LOOP('',(#357,#358));
#86=LINE('',#534,#131);
#87=LINE('',#542,#132);
#88=LINE('',#544,#133);
#89=LINE('',#546,#134);
#90=LINE('',#547,#135);
#91=LINE('',#550,#136);
#92=LINE('',#552,#137);
#93=LINE('',#553,#138);
#94=LINE('',#556,#139);
#95=LINE('',#558,#140);
#96=LINE('',#560,#141);
#97=LINE('',#561,#142);
#98=LINE('',#564,#143);
#99=LINE('',#565,#144);
#100=LINE('',#568,#145);
#101=LINE('',#569,#146);
#102=LINE('',#571,#147);
#103=LINE('',#575,#148);
#104=LINE('',#577,#149);
#105=LINE('',#579,#150);
#106=LINE('',#580,#151);
#107=LINE('',#584,#152);
#108=LINE('',#585,#153);
#109=LINE('',#586,#154);
#110=LINE('',#589,#155);
#111=LINE('',#590,#156);
#112=LINE('',#593,#157);
#113=LINE('',#594,#158);
#114=LINE('',#596,#159);
#115=LINE('',#600,#160);
#116=LINE('',#601,#161);
#117=LINE('',#602,#162);
#118=LINE('',#605,#163);
#119=LINE('',#606,#164);
#120=LINE('',#609,#165);
#121=LINE('',#610,#166);
#122=LINE('',#612,#167);
#123=LINE('',#617,#168);
#124=LINE('',#618,#169);
#125=LINE('',#619,#170);
#126=LINE('',#622,#171);
#127=LINE('',#623,#172);
#128=LINE('',#626,#173);
#129=LINE('',#627,#174);
#130=LINE('',#629,#175);
#131=VECTOR('',#436,25.);
#132=VECTOR('',#445,10.);
#133=VECTOR('',#446,10.);
#134=VECTOR('',#447,10.);
#135=VECTOR('',#448,10.);
#136=VECTOR('',#451,10.);
#137=VECTOR('',#452,10.);
#138=VECTOR('',#453,10.);
#139=VECTOR('',#454,10.);
#140=VECTOR('',#455,10.);
#141=VECTOR('',#456,10.);
#142=VECTOR('',#457,10.);
#143=VECTOR('',#460,10.);
#144=VECTOR('',#461,10.);
#145=VECTOR('',#464,10.);
#146=VECTOR('',#465,10.);
#147=VECTOR('',#468,10.);
#148=VECTOR('',#471,10.);
#149=VECTOR('',#472,10.);
#150=VECTOR('',#473,10.);
#151=VECTOR('',#474,10.);
#152=VECTOR('',#477,10.);
#153=VECTOR('',#478,10.);
#154=VECTOR('',#479,10.);
#155=VECTOR('',#482,10.);
#156=VECTOR('',#483,10.);
#157=VECTOR('',#486,10.);
#158=VECTOR('',#487,10.);
#159=VECTOR('',#490,10.);
#160=VECTOR('',#493,10.);
#161=VECTOR('',#494,10.);
#162=VECTOR('',#495,10.);
#163=VECTOR('',#498,10.);
#164=VECTOR('',#499,10.);
#165=VECTOR('',#502,10.);
#166=VECTOR('',#503,10.);
#167=VECTOR('',#506,10.);
#168=VECTOR('',#511,10.);
#169=VECTOR('',#512,10.);
#170=VECTOR('',#513,10.);
#171=VECTOR('',#516,10.);
#172=VECTOR('',#517,10.);
#173=VECTOR('',#520,10.);
#174=VECTOR('',#521,10.);
#175=VECTOR('',#524,10.);
#176=CIRCLE('',#403,25.);
#177=CIRCLE('',#404,25.);
#178=CIRCLE('',#405,25.);
#179=CIRCLE('',#406,25.);
#180=VERTEX_POINT('',#529);
#181=VERTEX_POINT('',#530);
#182=VERTEX_POINT('',#533);
#183=VERTEX_POINT('',#535);
#184=VERTEX_POINT('',#540);
#185=VERTEX_POINT('',#541);
#186=VERTEX_POINT('',#543);
#187=VERTEX_POINT('',#545);
#188=VERTEX_POINT('',#549);
#189=VERTEX_POINT('',#551);
#190=VERTEX_POINT('',#554);
#191=VERTEX_POINT('',#555);
#192=VERTEX_POINT('',#557);
#193=VERTEX_POINT('',#559);
#194=VERTEX_POINT('',#563);
#195=VERTEX_POINT('',#567);
#196=VERTEX_POINT('',#573);
#197=VERTEX_POINT('',#574);
#198=VERTEX_POINT('',#576);
#199=VERTEX_POINT('',#578);
#200=VERTEX_POINT('',#582);
#201=VERTEX_POINT('',#583);
#202=VERTEX_POINT('',#588);
#203=VERTEX_POINT('',#592);
#204=VERTEX_POINT('',#598);
#205=VERTEX_POINT('',#599);
#206=VERTEX_POINT('',#604);
#207=VERTEX_POINT('',#608);
#208=VERTEX_POINT('',#615);
#209=VERTEX_POINT('',#616);
#210=VERTEX_POINT('',#621);
#211=VERTEX_POINT('',#625);
#212=EDGE_CURVE('',#180,#181,#176,.T.);
#213=EDGE_CURVE('',#181,#180,#177,.T.);
#214=EDGE_CURVE('',#181,#182,#86,.T.);
#215=EDGE_CURVE('',#183,#182,#178,.T.);
#216=EDGE_CURVE('',#182,#183,#179,.T.);
#217=EDGE_CURVE('',#184,#185,#87,.T.);
#218=EDGE_CURVE('',#185,#186,#88,.T.);
#219=EDGE_CURVE('',#186,#187,#89,.T.);
#220=EDGE_CURVE('',#187,#184,#90,.T.);
#221=EDGE_CURVE('',#188,#185,#91,.T.);
#222=EDGE_CURVE('',#189,#188,#92,.T.);
#223=EDGE_CURVE('',#186,#189,#93,.T.);
#224=EDGE_CURVE('',#190,#191,#94,.T.);
#225=EDGE_CURVE('',#191,#192,#95,.T.);
#226=EDGE_CURVE('',#192,#193,#96,.T.);
#227=EDGE_CURVE('',#193,#190,#97,.T.);
#228=EDGE_CURVE('',#184,#194,#98,.T.);
#229=EDGE_CURVE('',#188,#194,#99,.T.);
#230=EDGE_CURVE('',#189,#195,#100,.T.);
#231=EDGE_CURVE('',#195,#187,#101,.T.);
#232=EDGE_CURVE('',#194,#195,#102,.T.);
#233=EDGE_CURVE('',#196,#197,#103,.T.);
#234=EDGE_CURVE('',#197,#198,#104,.T.);
#235=EDGE_CURVE('',#198,#199,#105,.T.);
#236=EDGE_CURVE('',#199,#196,#106,.T.);
#237=EDGE_CURVE('',#200,#201,#107,.T.);
#238=EDGE_CURVE('',#201,#190,#108,.T.);
#239=EDGE_CURVE('',#200,#193,#109,.T.);
#240=EDGE_CURVE('',#202,#200,#110,.T.);
#241=EDGE_CURVE('',#202,#192,#111,.T.);
#242=EDGE_CURVE('',#203,#202,#112,.T.);
#243=EDGE_CURVE('',#203,#191,#113,.T.);
#244=EDGE_CURVE('',#201,#203,#114,.T.);
#245=EDGE_CURVE('',#204,#205,#115,.T.);
#246=EDGE_CURVE('',#205,#201,#116,.T.);
#247=EDGE_CURVE('',#204,#200,#117,.T.);
#248=EDGE_CURVE('',#205,#206,#118,.T.);
#249=EDGE_CURVE('',#206,#203,#119,.T.);
#250=EDGE_CURVE('',#206,#207,#120,.T.);
#251=EDGE_CURVE('',#207,#202,#121,.T.);
#252=EDGE_CURVE('',#207,#204,#122,.T.);
#253=EDGE_CURVE('',#208,#209,#123,.T.);
#254=EDGE_CURVE('',#208,#197,#124,.T.);
#255=EDGE_CURVE('',#209,#196,#125,.T.);
#256=EDGE_CURVE('',#209,#210,#126,.T.);
#257=EDGE_CURVE('',#210,#199,#127,.T.);
#258=EDGE_CURVE('',#210,#211,#128,.T.);
#259=EDGE_CURVE('',#211,#198,#129,.T.);
#260=EDGE_CURVE('',#211,#208,#130,.T.);
#261=ORIENTED_EDGE('',*,*,#212,.F.);
#262=ORIENTED_EDGE('',*,*,#213,.F.);
#263=ORIENTED_EDGE('',*,*,#214,.T.);
#264=ORIENTED_EDGE('',*,*,#215,.F.);
#265=ORIENTED_EDGE('',*,*,#216,.F.);
#266=ORIENTED_EDGE('',*,*,#214,.F.);
#267=ORIENTED_EDGE('',*,*,#212,.T.);
#268=ORIENTED_EDGE('',*,*,#213,.T.);
#269=ORIENTED_EDGE('',*,*,#217,.T.);
#270=ORIENTED_EDGE('',*,*,#218,.T.);
#271=ORIENTED_EDGE('',*,*,#219,.T.);
#272=ORIENTED_EDGE('',*,*,#220,.T.);
#273=ORIENTED_EDGE('',*,*,#218,.F.);
#274=ORIENTED_EDGE('',*,*,#221,.F.);
#275=ORIENTED_EDGE('',*,*,#222,.F.);
#276=ORIENTED_EDGE('',*,*,#223,.F.);
#277=ORIENTED_EDGE('',*,*,#224,.T.);
#278=ORIENTED_EDGE('',*,*,#225,.T.);
#279=ORIENTED_EDGE('',*,*,#226,.T.);
#280=ORIENTED_EDGE('',*,*,#227,.T.);
#281=ORIENTED_EDGE('',*,*,#217,.F.);
#282=ORIENTED_EDGE('',*,*,#228,.T.);
#283=ORIENTED_EDGE('',*,*,#229,.F.);
#284=ORIENTED_EDGE('',*,*,#221,.T.);
#285=ORIENTED_EDGE('',*,*,#219,.F.);
#286=ORIENTED_EDGE('',*,*,#223,.T.);
#287=ORIENTED_EDGE('',*,*,#230,.T.);
#288=ORIENTED_EDGE('',*,*,#231,.T.);
#289=ORIENTED_EDGE('',*,*,#230,.F.);
#290=ORIENTED_EDGE('',*,*,#222,.T.);
#291=ORIENTED_EDGE('',*,*,#229,.T.);
#292=ORIENTED_EDGE('',*,*,#232,.T.);
#293=ORIENTED_EDGE('',*,*,#220,.F.);
#294=ORIENTED_EDGE('',*,*,#231,.F.);
#295=ORIENTED_EDGE('',*,*,#232,.F.);
#296=ORIENTED_EDGE('',*,*,#228,.F.);
#297=ORIENTED_EDGE('',*,*,#233,.T.);
#298=ORIENTED_EDGE('',*,*,#234,.T.);
#299=ORIENTED_EDGE('',*,*,#235,.T.);
#300=ORIENTED_EDGE('',*,*,#236,.T.);
#301=ORIENTED_EDGE('',*,*,#237,.T.);
#302=ORIENTED_EDGE('',*,*,#238,.T.);
#303=ORIENTED_EDGE('',*,*,#227,.F.);
#304=ORIENTED_EDGE('',*,*,#239,.F.);
#305=ORIENTED_EDGE('',*,*,#240,.T.);
#306=ORIENTED_EDGE('',*,*,#239,.T.);
#307=ORIENTED_EDGE('',*,*,#226,.F.);
#308=ORIENTED_EDGE('',*,*,#241,.F.);
#309=ORIENTED_EDGE('',*,*,#242,.T.);
#310=ORIENTED_EDGE('',*,*,#241,.T.);
#311=ORIENTED_EDGE('',*,*,#225,.F.);
#312=ORIENTED_EDGE('',*,*,#243,.F.);
#313=ORIENTED_EDGE('',*,*,#244,.T.);
#314=ORIENTED_EDGE('',*,*,#243,.T.);
#315=ORIENTED_EDGE('',*,*,#224,.F.);
#316=ORIENTED_EDGE('',*,*,#238,.F.);
#317=ORIENTED_EDGE('',*,*,#245,.T.);
#318=ORIENTED_EDGE('',*,*,#246,.T.);
#319=ORIENTED_EDGE('',*,*,#237,.F.);
#320=ORIENTED_EDGE('',*,*,#247,.F.);
#321=ORIENTED_EDGE('',*,*,#244,.F.);
#322=ORIENTED_EDGE('',*,*,#246,.F.);
#323=ORIENTED_EDGE('',*,*,#248,.T.);
#324=ORIENTED_EDGE('',*,*,#249,.T.);
#325=ORIENTED_EDGE('',*,*,#242,.F.);
#326=ORIENTED_EDGE('',*,*,#249,.F.);
#327=ORIENTED_EDGE('',*,*,#250,.T.);
#328=ORIENTED_EDGE('',*,*,#251,.T.);
#329=ORIENTED_EDGE('',*,*,#240,.F.);
#330=ORIENTED_EDGE('',*,*,#251,.F.);
#331=ORIENTED_EDGE('',*,*,#252,.T.);
#332=ORIENTED_EDGE('',*,*,#247,.T.);
#333=ORIENTED_EDGE('',*,*,#245,.F.);
#334=ORIENTED_EDGE('',*,*,#252,.F.);
#335=ORIENTED_EDGE('',*,*,#250,.F.);
#336=ORIENTED_EDGE('',*,*,#248,.F.);
#337=ORIENTED_EDGE('',*,*,#253,.F.);
#338=ORIENTED_EDGE('',*,*,#254,.T.);
#339=ORIENTED_EDGE('',*,*,#233,.F.);
#340=ORIENTED_EDGE('',*,*,#255,.F.);
#341=ORIENTED_EDGE('',*,*,#256,.F.);
#342=ORIENTED_EDGE('',*,*,#255,.T.);
#343=ORIENTED_EDGE('',*,*,#236,.F.);
#344=ORIENTED_EDGE('',*,*,#257,.F.);
#345=ORIENTED_EDGE('',*,*,#258,.F.);
#346=ORIENTED_EDGE('',*,*,#257,.T.);
#347=ORIENTED_EDGE('',*,*,#235,.F.);
#348=ORIENTED_EDGE('',*,*,#259,.F.);
#349=ORIENTED_EDGE('',*,*,#260,.F.);
#350=ORIENTED_EDGE('',*,*,#259,.T.);
#351=ORIENTED_EDGE('',*,*,#234,.F.);
#352=ORIENTED_EDGE('',*,*,#254,.F.);
#353=ORIENTED_EDGE('',*,*,#260,.T.);
#354=ORIENTED_EDGE('',*,*,#253,.T.);
#355=ORIENTED_EDGE('',*,*,#256,.T.);
#356=ORIENTED_EDGE('',*,*,#258,.T.);
#357=ORIENTED_EDGE('',*,*,#215,.T.);
#358=ORIENTED_EDGE('',*,*,#216,.T.);
#359=CYLINDRICAL_SURFACE('',#402,25.);
#360=ADVANCED_FACE('',(#39),#359,.T.);
#361=ADVANCED_FACE('',(#40),#18,.T.);
#362=ADVANCED_FACE('',(#41),#19,.T.);
#363=ADVANCED_FACE('',(#42,#15),#20,.T.);
#364=ADVANCED_FACE('',(#43),#21,.T.);
#365=ADVANCED_FACE('',(#44),#22,.T.);
#366=ADVANCED_FACE('',(#45),#23,.T.);
#367=ADVANCED_FACE('',(#46,#16),#24,.F.);
#368=ADVANCED_FACE('',(#47),#25,.T.);
#369=ADVANCED_FACE('',(#48),#26,.T.);
#370=ADVANCED_FACE('',(#49),#27,.T.);
#371=ADVANCED_FACE('',(#50),#28,.T.);
#372=ADVANCED_FACE('',(#51),#29,.T.);
#373=ADVANCED_FACE('',(#52),#30,.T.);
#374=ADVANCED_FACE('',(#53),#31,.T.);
#375=ADVANCED_FACE('',(#54),#32,.T.);
#376=ADVANCED_FACE('',(#55),#33,.F.);
#377=ADVANCED_FACE('',(#56),#34,.T.);
#378=ADVANCED_FACE('',(#57),#35,.T.);
#379=ADVANCED_FACE('',(#58),#36,.T.);
#380=ADVANCED_FACE('',(#59),#37,.T.);
#381=ADVANCED_FACE('',(#60,#17),#38,.T.);
#382=CLOSED_SHELL('',(#360,#361,#362,#363,#364,#365,#366,#367,#368,#369,
#370,#371,#372,#373,#374,#375,#376,#377,#378,#379,#380,#381));
#383=DERIVED_UNIT_ELEMENT(#385,1.);
#384=DERIVED_UNIT_ELEMENT(#636,3.);
#385=(
MASS_UNIT()
NAMED_UNIT(*)
SI_UNIT($,.GRAM.)
);
#386=DERIVED_UNIT((#383,#384));
#387=MEASURE_REPRESENTATION_ITEM('density measure',
POSITIVE_RATIO_MEASURE(1.),#386);
#388=PROPERTY_DEFINITION_REPRESENTATION(#393,#390);
#389=PROPERTY_DEFINITION_REPRESENTATION(#394,#391);
#390=REPRESENTATION('material name',(#392),#633);
#391=REPRESENTATION('density',(#387),#633);
#392=DESCRIPTIVE_REPRESENTATION_ITEM('Generisch','Generisch');
#393=PROPERTY_DEFINITION('material property','material name',#643);
#394=PROPERTY_DEFINITION('material property','density of part',#643);
#395=DATE_TIME_ROLE('creation_date');
#396=APPLIED_DATE_AND_TIME_ASSIGNMENT(#397,#395,(#643));
#397=DATE_AND_TIME(#398,#399);
#398=CALENDAR_DATE(2021,23,6);
#399=LOCAL_TIME(6,18,36.,#400);
#400=COORDINATED_UNIVERSAL_TIME_OFFSET(0,0,.BEHIND.);
#401=AXIS2_PLACEMENT_3D('placement',#527,#428,#429);
#402=AXIS2_PLACEMENT_3D('',#528,#430,#431);
#403=AXIS2_PLACEMENT_3D('',#531,#432,#433);
#404=AXIS2_PLACEMENT_3D('',#532,#434,#435);
#405=AXIS2_PLACEMENT_3D('',#536,#437,#438);
#406=AXIS2_PLACEMENT_3D('',#537,#439,#440);
#407=AXIS2_PLACEMENT_3D('',#538,#441,#442);
#408=AXIS2_PLACEMENT_3D('',#539,#443,#444);
#409=AXIS2_PLACEMENT_3D('',#548,#449,#450);
#410=AXIS2_PLACEMENT_3D('',#562,#458,#459);
#411=AXIS2_PLACEMENT_3D('',#566,#462,#463);
#412=AXIS2_PLACEMENT_3D('',#570,#466,#467);
#413=AXIS2_PLACEMENT_3D('',#572,#469,#470);
#414=AXIS2_PLACEMENT_3D('',#581,#475,#476);
#415=AXIS2_PLACEMENT_3D('',#587,#480,#481);
#416=AXIS2_PLACEMENT_3D('',#591,#484,#485);
#417=AXIS2_PLACEMENT_3D('',#595,#488,#489);
#418=AXIS2_PLACEMENT_3D('',#597,#491,#492);
#419=AXIS2_PLACEMENT_3D('',#603,#496,#497);
#420=AXIS2_PLACEMENT_3D('',#607,#500,#501);
#421=AXIS2_PLACEMENT_3D('',#611,#504,#505);
#422=AXIS2_PLACEMENT_3D('',#613,#507,#508);
#423=AXIS2_PLACEMENT_3D('',#614,#509,#510);
#424=AXIS2_PLACEMENT_3D('',#620,#514,#515);
#425=AXIS2_PLACEMENT_3D('',#624,#518,#519);
#426=AXIS2_PLACEMENT_3D('',#628,#522,#523);
#427=AXIS2_PLACEMENT_3D('',#630,#525,#526);
#428=DIRECTION('axis',(0.,0.,1.));
#429=DIRECTION('refdir',(1.,0.,0.));
#430=DIRECTION('center_axis',(0.,1.,0.));
#431=DIRECTION('ref_axis',(1.,0.,0.));
#432=DIRECTION('center_axis',(0.,1.,0.));
#433=DIRECTION('ref_axis',(1.,0.,0.));
#434=DIRECTION('center_axis',(0.,1.,0.));
#435=DIRECTION('ref_axis',(1.,0.,0.));
#436=DIRECTION('',(0.,-1.,0.));
#437=DIRECTION('center_axis',(0.,-1.,0.));
#438=DIRECTION('ref_axis',(1.,0.,0.));
#439=DIRECTION('center_axis',(0.,-1.,0.));
#440=DIRECTION('ref_axis',(1.,0.,0.));
#441=DIRECTION('center_axis',(0.,1.,0.));
#442=DIRECTION('ref_axis',(0.,0.,1.));
#443=DIRECTION('center_axis',(0.196116135138184,-0.98058067569092,0.));
#444=DIRECTION('ref_axis',(0.,0.,-1.));
#445=DIRECTION('',(-0.700140042014005,-0.140028008402801,-0.700140042014005));
#446=DIRECTION('',(0.,0.,-1.));
#447=DIRECTION('',(0.700140042014005,0.140028008402801,-0.700140042014005));
#448=DIRECTION('',(0.,0.,1.));
#449=DIRECTION('center_axis',(0.,-1.,0.));
#450=DIRECTION('ref_axis',(0.,0.,-1.));
#451=DIRECTION('',(1.,0.,0.));
#452=DIRECTION('',(0.,0.,1.));
#453=DIRECTION('',(-1.,0.,0.));
#454=DIRECTION('',(1.,0.,0.));
#455=DIRECTION('',(7.0073248102574E-17,0.,-1.));
#456=DIRECTION('',(-1.,0.,-1.69986300421077E-16));
#457=DIRECTION('',(0.,0.,1.));
#458=DIRECTION('center_axis',(0.,-0.98058067569092,0.196116135138184));
#459=DIRECTION('ref_axis',(0.,-0.196116135138184,-0.98058067569092));
#460=DIRECTION('',(-1.,0.,0.));
#461=DIRECTION('',(-0.700140042014005,0.140028008402801,0.700140042014005));
#462=DIRECTION('center_axis',(0.,-0.98058067569092,-0.196116135138184));
#463=DIRECTION('ref_axis',(0.,0.196116135138184,-0.98058067569092));
#464=DIRECTION('',(-0.700140042014005,0.140028008402801,-0.700140042014005));
#465=DIRECTION('',(1.,0.,0.));
#466=DIRECTION('center_axis',(-0.196116135138184,-0.98058067569092,0.));
#467=DIRECTION('ref_axis',(0.,0.,-1.));
#468=DIRECTION('',(0.,0.,-1.));
#469=DIRECTION('center_axis',(0.,-1.,0.));
#470=DIRECTION('ref_axis',(0.,0.,-1.));
#471=DIRECTION('',(-1.,0.,0.));
#472=DIRECTION('',(0.,0.,-1.));
#473=DIRECTION('',(1.,0.,-1.64731700717179E-16));
#474=DIRECTION('',(2.69655687195484E-16,0.,1.));
#475=DIRECTION('center_axis',(1.,0.,0.));
#476=DIRECTION('ref_axis',(0.,0.,1.));
#477=DIRECTION('',(0.,0.,1.));
#478=DIRECTION('',(0.,-1.,0.));
#479=DIRECTION('',(0.,-1.,0.));
#480=DIRECTION('center_axis',(-1.69986300421077E-16,0.,1.));
#481=DIRECTION('ref_axis',(-1.,0.,-1.69986300421077E-16));
#482=DIRECTION('',(-1.,0.,0.));
#483=DIRECTION('',(0.,-1.,0.));
#484=DIRECTION('center_axis',(-1.,0.,-7.0073248102574E-17));
#485=DIRECTION('ref_axis',(7.0073248102574E-17,0.,-1.));
#486=DIRECTION('',(0.,0.,-1.));
#487=DIRECTION('',(0.,-1.,0.));
#488=DIRECTION('center_axis',(0.,0.,-1.));
#489=DIRECTION('ref_axis',(1.,0.,0.));
#490=DIRECTION('',(1.,0.,0.));
#491=DIRECTION('center_axis',(0.707106781186548,-0.707106781186547,0.));
#492=DIRECTION('ref_axis',(0.,0.,-1.));
#493=DIRECTION('',(0.,0.,1.));
#494=DIRECTION('',(-0.577350269189626,-0.577350269189626,0.577350269189626));
#495=DIRECTION('',(-0.577350269189626,-0.577350269189626,-0.577350269189626));
#496=DIRECTION('center_axis',(0.,-0.707106781186547,-0.707106781186548));
#497=DIRECTION('ref_axis',(-1.,0.,0.));
#498=DIRECTION('',(1.,0.,0.));
#499=DIRECTION('',(0.577350269189626,-0.577350269189626,0.577350269189626));
#500=DIRECTION('center_axis',(-0.707106781186548,-0.707106781186547,0.));
#501=DIRECTION('ref_axis',(0.,0.,1.));
#502=DIRECTION('',(0.,0.,-1.));
#503=DIRECTION('',(0.577350269189626,-0.577350269189626,-0.577350269189626));
#504=DIRECTION('center_axis',(0.,-0.707106781186547,0.707106781186548));
#505=DIRECTION('ref_axis',(1.,0.,0.));
#506=DIRECTION('',(-1.,0.,0.));
#507=DIRECTION('center_axis',(0.,1.,0.));
#508=DIRECTION('ref_axis',(0.,0.,1.));
#509=DIRECTION('center_axis',(0.,0.,1.));
#510=DIRECTION('ref_axis',(-1.,0.,0.));
#511=DIRECTION('',(1.,0.,0.));
#512=DIRECTION('',(0.,-1.,0.));
#513=DIRECTION('',(0.,-1.,0.));
#514=DIRECTION('center_axis',(1.,0.,-2.69655687195484E-16));
#515=DIRECTION('ref_axis',(2.69655687195484E-16,0.,1.));
#516=DIRECTION('',(-2.69655687195484E-16,0.,-1.));
#517=DIRECTION('',(0.,-1.,0.));
#518=DIRECTION('center_axis',(-1.64731700717179E-16,0.,-1.));
#519=DIRECTION('ref_axis',(1.,0.,-1.64731700717179E-16));
#520=DIRECTION('',(-1.,0.,1.64731700717179E-16));
#521=DIRECTION('',(0.,-1.,0.));
#522=DIRECTION('center_axis',(-1.,0.,0.));
#523=DIRECTION('ref_axis',(0.,0.,-1.));
#524=DIRECTION('',(0.,0.,1.));
#525=DIRECTION('center_axis',(0.,1.,0.));
#526=DIRECTION('ref_axis',(0.,0.,1.));
#527=CARTESIAN_POINT('',(0.,0.,0.));
#528=CARTESIAN_POINT('Origin',(-270.5,0.,-220.5));
#529=CARTESIAN_POINT('',(-245.5,50.,-220.5));
#530=CARTESIAN_POINT('',(-295.5,50.,-220.5));
#531=CARTESIAN_POINT('Origin',(-270.5,50.,-220.5));
#532=CARTESIAN_POINT('Origin',(-270.5,50.,-220.5));
#533=CARTESIAN_POINT('',(-295.5,0.,-220.5));
#534=CARTESIAN_POINT('',(-295.5,0.,-220.5));
#535=CARTESIAN_POINT('',(-245.5,0.,-220.5));
#536=CARTESIAN_POINT('Origin',(-270.5,0.,-220.5));
#537=CARTESIAN_POINT('Origin',(-270.5,0.,-220.5));
#538=CARTESIAN_POINT('Origin',(-270.5,50.,-220.5));
#539=CARTESIAN_POINT('Origin',(340.,-58.,-142.5));
#540=CARTESIAN_POINT('',(345.,-57.,285.));
#541=CARTESIAN_POINT('',(335.,-59.,275.));
#542=CARTESIAN_POINT('',(195.392156862745,-86.921568627451,135.392156862745));
#543=CARTESIAN_POINT('',(335.,-59.,-275.));
#544=CARTESIAN_POINT('',(335.,-59.,-142.5));
#545=CARTESIAN_POINT('',(345.,-57.,-285.));
#546=CARTESIAN_POINT('',(180.686274509804,-89.8627450980393,-120.686274509804));
#547=CARTESIAN_POINT('',(345.,-57.,-285.));
#548=CARTESIAN_POINT('Origin',(0.,-59.,3.5527136788005E-14));
#549=CARTESIAN_POINT('',(-335.,-59.,275.));
#550=CARTESIAN_POINT('',(172.5,-59.,275.));
#551=CARTESIAN_POINT('',(-335.,-59.,-275.));
#552=CARTESIAN_POINT('',(-335.,-59.,142.5));
#553=CARTESIAN_POINT('',(-172.5,-59.,-275.));
#554=CARTESIAN_POINT('',(-313.5,-59.,253.5));
#555=CARTESIAN_POINT('',(313.5,-59.,253.5));
#556=CARTESIAN_POINT('',(-313.5,-59.,253.5));
#557=CARTESIAN_POINT('',(313.5,-59.,-253.5));
#558=CARTESIAN_POINT('',(313.5,-59.,253.5));
#559=CARTESIAN_POINT('',(-313.5,-59.,-253.5));
#560=CARTESIAN_POINT('',(313.5,-59.,-253.5));
#561=CARTESIAN_POINT('',(-313.5,-59.,-253.5));
#562=CARTESIAN_POINT('Origin',(172.5,-58.,280.));
#563=CARTESIAN_POINT('',(-345.,-57.,285.));
#564=CARTESIAN_POINT('',(345.,-57.,285.));
#565=CARTESIAN_POINT('',(-180.686274509804,-89.8627450980393,120.686274509804));
#566=CARTESIAN_POINT('Origin',(-172.5,-58.,-280.));
#567=CARTESIAN_POINT('',(-345.,-57.,-285.));
#568=CARTESIAN_POINT('',(-195.392156862745,-86.921568627451,-135.392156862745));
#569=CARTESIAN_POINT('',(-345.,-57.,-285.));
#570=CARTESIAN_POINT('Origin',(-340.,-58.,142.5));
#571=CARTESIAN_POINT('',(-345.,-57.,285.));
#572=CARTESIAN_POINT('Origin',(0.,-57.,1.77635683940025E-14));
#573=CARTESIAN_POINT('',(323.5,-57.,263.5));
#574=CARTESIAN_POINT('',(-323.5,-57.,263.5));
#575=CARTESIAN_POINT('',(-323.5,-57.,263.5));
#576=CARTESIAN_POINT('',(-323.5,-57.,-263.5));
#577=CARTESIAN_POINT('',(-323.5,-57.,-263.5));
#578=CARTESIAN_POINT('',(323.5,-57.,-263.5));
#579=CARTESIAN_POINT('',(323.5,-57.,-263.5));
#580=CARTESIAN_POINT('',(323.5,-57.,263.5));
#581=CARTESIAN_POINT('Origin',(-313.5,-57.,-253.5));
#582=CARTESIAN_POINT('',(-313.5,-57.,-253.5));
#583=CARTESIAN_POINT('',(-313.5,-57.,253.5));
#584=CARTESIAN_POINT('',(-313.5,-57.,-126.75));
#585=CARTESIAN_POINT('',(-313.5,-57.,253.5));
#586=CARTESIAN_POINT('',(-313.5,-57.,-253.5));
#587=CARTESIAN_POINT('Origin',(313.5,-57.,-253.5));
#588=CARTESIAN_POINT('',(313.5,-57.,-253.5));
#589=CARTESIAN_POINT('',(156.75,-57.,-253.5));
#590=CARTESIAN_POINT('',(313.5,-57.,-253.5));
#591=CARTESIAN_POINT('Origin',(313.5,-57.,253.5));
#592=CARTESIAN_POINT('',(313.5,-57.,253.5));
#593=CARTESIAN_POINT('',(313.5,-57.,126.75));
#594=CARTESIAN_POINT('',(313.5,-57.,253.5));
#595=CARTESIAN_POINT('Origin',(-313.5,-57.,253.5));
#596=CARTESIAN_POINT('',(-156.75,-57.,253.5));
#597=CARTESIAN_POINT('Origin',(-310.,-53.5,-126.75));
#598=CARTESIAN_POINT('',(-306.5,-50.,-246.5));
#599=CARTESIAN_POINT('',(-306.5,-50.,246.5));
#600=CARTESIAN_POINT('',(-306.5,-50.,-126.75));
#601=CARTESIAN_POINT('',(-306.5,-50.,246.5));
#602=CARTESIAN_POINT('',(-306.5,-50.,-246.5));
#603=CARTESIAN_POINT('Origin',(-156.75,-53.5,250.));
#604=CARTESIAN_POINT('',(306.5,-50.,246.5));
#605=CARTESIAN_POINT('',(-156.75,-50.,246.5));
#606=CARTESIAN_POINT('',(306.5,-50.,246.5));
#607=CARTESIAN_POINT('Origin',(310.,-53.5,126.75));
#608=CARTESIAN_POINT('',(306.5,-50.,-246.5));
#609=CARTESIAN_POINT('',(306.5,-50.,126.75));
#610=CARTESIAN_POINT('',(306.5,-50.,-246.5));
#611=CARTESIAN_POINT('Origin',(156.75,-53.5,-250.));
#612=CARTESIAN_POINT('',(156.75,-50.,-246.5));
#613=CARTESIAN_POINT('Origin',(0.,-50.,0.));
#614=CARTESIAN_POINT('Origin',(323.5,0.,263.5));
#615=CARTESIAN_POINT('',(-323.5,0.,263.5));
#616=CARTESIAN_POINT('',(323.5,0.,263.5));
#617=CARTESIAN_POINT('',(-323.5,0.,263.5));
#618=CARTESIAN_POINT('',(-323.5,0.,263.5));
#619=CARTESIAN_POINT('',(323.5,0.,263.5));
#620=CARTESIAN_POINT('Origin',(323.5,0.,-263.5));
#621=CARTESIAN_POINT('',(323.5,0.,-263.5));
#622=CARTESIAN_POINT('',(323.5,0.,263.5));
#623=CARTESIAN_POINT('',(323.5,0.,-263.5));
#624=CARTESIAN_POINT('Origin',(-323.5,0.,-263.5));
#625=CARTESIAN_POINT('',(-323.5,0.,-263.5));
#626=CARTESIAN_POINT('',(323.5,0.,-263.5));
#627=CARTESIAN_POINT('',(-323.5,0.,-263.5));
#628=CARTESIAN_POINT('Origin',(-323.5,0.,263.5));
#629=CARTESIAN_POINT('',(-323.5,0.,-263.5));
#630=CARTESIAN_POINT('Origin',(7.105427357601E-14,0.,-1.77635683940025E-14));
#631=UNCERTAINTY_MEASURE_WITH_UNIT(LENGTH_MEASURE(0.01),#635,
'DISTANCE_ACCURACY_VALUE',
'Maximum model space distance between geometric entities at asserted c
onnectivities');
#632=UNCERTAINTY_MEASURE_WITH_UNIT(LENGTH_MEASURE(0.01),#635,
'DISTANCE_ACCURACY_VALUE',
'Maximum model space distance between geometric entities at asserted c
onnectivities');
#633=(
GEOMETRIC_REPRESENTATION_CONTEXT(3)
GLOBAL_UNCERTAINTY_ASSIGNED_CONTEXT((#631))
GLOBAL_UNIT_ASSIGNED_CONTEXT((#635,#637,#638))
REPRESENTATION_CONTEXT('','3D')
);
#634=(
GEOMETRIC_REPRESENTATION_CONTEXT(3)
GLOBAL_UNCERTAINTY_ASSIGNED_CONTEXT((#632))
GLOBAL_UNIT_ASSIGNED_CONTEXT((#635,#637,#638))
REPRESENTATION_CONTEXT('','3D')
);
#635=(
LENGTH_UNIT()
NAMED_UNIT(*)
SI_UNIT(.MILLI.,.METRE.)
);
#636=(
LENGTH_UNIT()
NAMED_UNIT(*)
SI_UNIT(.CENTI.,.METRE.)
);
#637=(
NAMED_UNIT(*)
PLANE_ANGLE_UNIT()
SI_UNIT($,.RADIAN.)
);
#638=(
NAMED_UNIT(*)
SI_UNIT($,.STERADIAN.)
SOLID_ANGLE_UNIT()
);
#639=SHAPE_DEFINITION_REPRESENTATION(#640,#641);
#640=PRODUCT_DEFINITION_SHAPE('',$,#643);
#641=SHAPE_REPRESENTATION('',(#401),#633);
#642=PRODUCT_DEFINITION_CONTEXT('part definition',#647,'design');
#643=PRODUCT_DEFINITION('3D-AKE-00003106','3D-AKE-00003106',#644,#642);
#644=PRODUCT_DEFINITION_FORMATION('',$,#649);
#645=PRODUCT_RELATED_PRODUCT_CATEGORY('3D-AKE-00003106',
'3D-AKE-00003106',(#649));
#646=APPLICATION_PROTOCOL_DEFINITION('international standard',
'automotive_design',2009,#647);
#647=APPLICATION_CONTEXT(
'Core Data for Automotive Mechanical Design Process');
#648=PRODUCT_CONTEXT('part definition',#647,'mechanical');
#649=PRODUCT('3D-AKE-00003106','3D-AKE-00003106',
'K\X\FChlplatte (stille K\X\FChlung): K\X\E4lte extern',(#648));
#650=PRESENTATION_STYLE_ASSIGNMENT((#651));
#651=SURFACE_STYLE_USAGE(.BOTH.,#654);
#652=SURFACE_STYLE_RENDERING_WITH_PROPERTIES($,#658,(#653));
#653=SURFACE_STYLE_TRANSPARENT(0.);
#654=SURFACE_SIDE_STYLE('',(#655,#652));
#655=SURFACE_STYLE_FILL_AREA(#656);
#656=FILL_AREA_STYLE('',(#657));
#657=FILL_AREA_STYLE_COLOUR('',#658);
#658=COLOUR_RGB('',0.749019607843137,0.749019607843137,0.749019607843137);
ENDSEC;
END-ISO-10303-21;
