  0
SECTION
  2
HEADER
  9
$ACADVER
  1
AC1015
  9
$ACADMAINTVER
 70
     6
  9
$DWGCODEPAGE
  3
ANSI_1252
  9
$INSBASE
 10
0.0
 20
0.0
 30
0.0
  9
$EXTMIN
 10
0.0
 20
0.0
 30
0.0
  9
$EXTMAX
 10
594.0
 20
420.0
 30
0.0
  9
$LIMMIN
 10
0.0
 20
0.0
  9
$LIMMAX
 10
594.0
 20
420.0
  9
$ORTHOMODE
 70
     0
  9
$REGENMODE
 70
     1
  9
$FILLMODE
 70
     1
  9
$QTEXTMODE
 70
     0
  9
$MIRRTEXT
 70
     1
  9
$LTSCALE
 40
1.0
  9
$ATTMODE
 70
     1
  9
$TEXTSIZE
 40
2.5
  9
$TRACEWID
 40
1.0
  9
$TEXTSTYLE
  7
Standard
  9
$CLAYER
  8
0
  9
$CELTYPE
  6
ByLayer
  9
$CECOLOR
 62
   256
  9
$CELTSCALE
 40
1.0
  9
$DISPSILH
 70
     0
  9
$DIMSCALE
 40
1.0
  9
$DIMASZ
 40
2.5
  9
$DIMEXO
 40
0.625
  9
$DIMDLI
 40
3.75
  9
$DIMRND
 40
0.0
  9
$DIMDLE
 40
0.0
  9
$DIMEXE
 40
1.25
  9
$DIMTP
 40
0.0
  9
$DIMTM
 40
0.0
  9
$DIMTXT
 40
2.5
  9
$DIMCEN
 40
2.5
  9
$DIMTSZ
 40
0.0
  9
$DIMTOL
 70
     0
  9
$DIMLIM
 70
     0
  9
$DIMTIH
 70
     0
  9
$DIMTOH
 70
     0
  9
$DIMSE1
 70
     0
  9
$DIMSE2
 70
     0
  9
$DIMTAD
 70
     1
  9
$DIMZIN
 70
     8
  9
$DIMBLK
  1

  9
$DIMASO
 70
     1
  9
$DIMSHO
 70
     1
  9
$DIMPOST
  1

  9
$DIMAPOST
  1

  9
$DIMALT
 70
     0
  9
$DIMALTD
 70
     3
  9
$DIMALTF
 40
0.0393700787
  9
$DIMLFAC
 40
1.0
  9
$DIMTOFL
 70
     1
  9
$DIMTVP
 40
0.0
  9
$DIMTIX
 70
     0
  9
$DIMSOXD
 70
     0
  9
$DIMSAH
 70
     0
  9
$DIMBLK1
  1

  9
$DIMBLK2
  1

  9
$DIMSTYLE
  2
ISO-25
  9
$DIMCLRD
 70
     0
  9
$DIMCLRE
 70
     0
  9
$DIMCLRT
 70
     0
  9
$DIMTFAC
 40
1.0
  9
$DIMGAP
 40
0.625
  9
$DIMJUST
 70
     0
  9
$DIMSD1
 70
     0
  9
$DIMSD2
 70
     0
  9
$DIMTOLJ
 70
     0
  9
$DIMTZIN
 70
     8
  9
$DIMALTZ
 70
     0
  9
$DIMALTTZ
 70
     0
  9
$DIMUPT
 70
     0
  9
$DIMDEC
 70
     2
  9
$DIMTDEC
 70
     2
  9
$DIMALTU
 70
     2
  9
$DIMALTTD
 70
     3
  9
$DIMTXSTY
  7
Standard
  9
$DIMAUNIT
 70
     0
  9
$DIMADEC
 70
     0
  9
$DIMALTRND
 40
0.0
  9
$DIMAZIN
 70
     0
  9
$DIMDSEP
 70
    44
  9
$DIMATFIT
 70
     3
  9
$DIMFRAC
 70
     0
  9
$DIMLDRBLK
  1

  9
$DIMLUNIT
 70
     2
  9
$DIMLWD
 70
    -2
  9
$DIMLWE
 70
    -2
  9
$DIMTMOVE
 70
     0
  9
$LUNITS
 70
     2
  9
$LUPREC
 70
     4
  9
$SKETCHINC
 40
1.0
  9
$FILLETRAD
 40
10.0
  9
$AUNITS
 70
     0
  9
$AUPREC
 70
     0
  9
$MENU
  1
.
  9
$ELEVATION
 40
0.0
  9
$PELEVATION
 40
0.0
  9
$THICKNESS
 40
0.0
  9
$LIMCHECK
 70
     0
  9
$CHAMFERA
 40
10.0
  9
$CHAMFERB
 40
10.0
  9
$CHAMFERC
 40
20.0
  9
$CHAMFERD
 40
0.0
  9
$SKPOLY
 70
     0
  9
$TDCREATE
 40
2457071.507977454
  9
$TDUCREATE
 40
2457071.466310787
  9
$TDUPDATE
 40
2457071.507981609
  9
$TDUUPDATE
 40
2457071.466314942
  9
$TDINDWG
 40
0.0000000116
  9
$TDUSRTIMER
 40
0.0000000116
  9
$USRTIMER
 70
     1
  9
$ANGBASE
 50
0.0
  9
$ANGDIR
 70
     0
  9
$PDMODE
 70
     0
  9
$PDSIZE
 40
0.0
  9
$PLINEWID
 40
0.0
  9
$SPLFRAME
 70
     0
  9
$SPLINETYPE
 70
     6
  9
$SPLINESEGS
 70
     8
  9
$HANDSEED
  5
403
  9
$SURFTAB1
 70
     6
  9
$SURFTAB2
 70
     6
  9
$SURFTYPE
 70
     6
  9
$SURFU
 70
     6
  9
$SURFV
 70
     6
  9
$UCSBASE
  2

  9
$UCSNAME
  2

  9
$UCSORG
 10
0.0
 20
0.0
 30
0.0
  9
$UCSXDIR
 10
1.0
 20
0.0
 30
0.0
  9
$UCSYDIR
 10
0.0
 20
1.0
 30
0.0
  9
$UCSORTHOREF
  2

  9
$UCSORTHOVIEW
 70
     0
  9
$UCSORGTOP
 10
0.0
 20
0.0
 30
0.0
  9
$UCSORGBOTTOM
 10
0.0
 20
0.0
 30
0.0
  9
$UCSORGLEFT
 10
0.0
 20
0.0
 30
0.0
  9
$UCSORGRIGHT
 10
0.0
 20
0.0
 30
0.0
  9
$UCSORGFRONT
 10
0.0
 20
0.0
 30
0.0
  9
$UCSORGBACK
 10
0.0
 20
0.0
 30
0.0
  9
$PUCSBASE
  2

  9
$PUCSNAME
  2

  9
$PUCSORG
 10
0.0
 20
0.0
 30
0.0
  9
$PUCSXDIR
 10
1.0
 20
0.0
 30
0.0
  9
$PUCSYDIR
 10
0.0
 20
1.0
 30
0.0
  9
$PUCSORTHOREF
  2

  9
$PUCSORTHOVIEW
 70
     0
  9
$PUCSORGTOP
 10
0.0
 20
0.0
 30
0.0
  9
$PUCSORGBOTTOM
 10
0.0
 20
0.0
 30
0.0
  9
$PUCSORGLEFT
 10
0.0
 20
0.0
 30
0.0
  9
$PUCSORGRIGHT
 10
0.0
 20
0.0
 30
0.0
  9
$PUCSORGFRONT
 10
0.0
 20
0.0
 30
0.0
  9
$PUCSORGBACK
 10
0.0
 20
0.0
 30
0.0
  9
$USERI1
 70
     0
  9
$USERI2
 70
     0
  9
$USERI3
 70
     0
  9
$USERI4
 70
     0
  9
$USERI5
 70
     0
  9
$USERR1
 40
0.0
  9
$USERR2
 40
0.0
  9
$USERR3
 40
0.0
  9
$USERR4
 40
0.0
  9
$USERR5
 40
0.0
  9
$WORLDVIEW
 70
     1
  9
$SHADEDGE
 70
     3
  9
$SHADEDIF
 70
    70
  9
$TILEMODE
 70
     1
  9
$MAXACTVP
 70
    64
  9
$PINSBASE
 10
0.0
 20
0.0
 30
0.0
  9
$PLIMCHECK
 70
     0
  9
$PEXTMIN
 10
0.0
 20
0.0
 30
0.0
  9
$PEXTMAX
 10
594.0
 20
420.0
 30
0.0
  9
$PLIMMIN
 10
0.0
 20
0.0
  9
$PLIMMAX
 10
594.0
 20
420.0
  9
$UNITMODE
 70
     0
  9
$VISRETAIN
 70
     1
  9
$PLINEGEN
 70
     0
  9
$PSLTSCALE
 70
     1
  9
$TREEDEPTH
 70
  3020
  9
$CMLSTYLE
  2
Standard
  9
$CMLJUST
 70
     0
  9
$CMLSCALE
 40
20.0
  9
$PROXYGRAPHICS
 70
     1
  9
$MEASUREMENT
 70
     1
  9
$CELWEIGHT
370
    -1
  9
$ENDCAPS
280
     0
  9
$JOINSTYLE
280
     0
  9
$LWDISPLAY
290
     0
  9
$INSUNITS
 70
     4
  9
$HYPERLINKBASE
  1

  9
$STYLESHEET
  1

  9
$XEDIT
290
     1
  9
$CEPSNTYPE
380
     0
  9
$PSTYLEMODE
290
     1
  9
$FINGERPRINTGUID
  2
{33A3955E-6B45-4FA8-B637-BE52E0B0C631}
  9
$VERSIONGUID
  2
{FAEB1C32-E019-11D5-929B-00C0DF256EC4}
  9
$EXTNAMES
290
     1
  9
$PSVPSCALE
 40
0.0
  9
$OLESTARTUP
290
     0
  0
ENDSEC
  0
SECTION
  2
CLASSES
  0
CLASS
  1
ACDBDICTIONARYWDFLT
  2
AcDbDictionaryWithDefault
  3
ObjectDBX Classes
 90
        0
280
     0
281
     0
  0
CLASS
  1
VISUALSTYLE
  2
AcDbVisualStyle
  3
ObjectDBX Classes
 90
     4095
280
     0
281
     0
  0
CLASS
  1
MATERIAL
  2
AcDbMaterial
  3
ObjectDBX Classes
 90
     1153
280
     0
281
     0
  0
CLASS
  1
DICTIONARYVAR
  2
AcDbDictionaryVar
  3
ObjectDBX Classes
 90
        0
280
     0
281
     0
  0
CLASS
  1
ACDBPLACEHOLDER
  2
AcDbPlaceHolder
  3
ObjectDBX Classes
 90
        0
280
     0
281
     0
  0
CLASS
  1
LAYOUT
  2
AcDbLayout
  3
ObjectDBX Classes
 90
        0
280
     0
281
     0
  0
ENDSEC
  0
SECTION
  2
TABLES
  0
TABLE
  2
VPORT
  5
8
330
0
100
AcDbSymbolTable
 70
     1
  0
VPORT
  5
29
330
8
100
AcDbSymbolTableRecord
100
AcDbViewportTableRecord
  2
*Active
 70
     0
 10
0.0
 20
0.0
 11
1.0
 21
1.0
 12
344.1869158879
 22
148.5
 13
0.0
 23
0.0
 14
10.0
 24
10.0
 15
10.0
 25
10.0
 16
0.0
 26
0.0
 36
1.0
 17
0.0
 27
0.0
 37
0.0
 40
297.0
 41
1.9729729729
 42
50.0
 43
0.0
 44
0.0
 50
0.0
 51
0.0
 71
     0
 72
   100
 73
     1
 74
     3
 75
     0
 76
     0
 77
     0
 78
     0
281
     0
 65
     1
110
0.0
120
0.0
130
0.0
111
1.0
121
0.0
131
0.0
112
0.0
122
1.0
132
0.0
 79
     0
146
0.0
  0
ENDTAB
  0
TABLE
  2
LTYPE
  5
5
330
0
100
AcDbSymbolTable
 70
     2
  0
LTYPE
  5
14
330
5
100
AcDbSymbolTableRecord
100
AcDbLinetypeTableRecord
  2
ByBlock
 70
     0
  3

 72
    65
 73
     0
 40
0.0
  0
LTYPE
  5
15
330
5
100
AcDbSymbolTableRecord
100
AcDbLinetypeTableRecord
  2
ByLayer
 70
     0
  3

 72
    65
 73
     0
 40
0.0
  0
LTYPE
  5
16
330
5
100
AcDbSymbolTableRecord
100
AcDbLinetypeTableRecord
  2
Continuous
 70
     0
  3
Solid line
 72
    65
 73
     0
 40
0.0
  0
LTYPE
  5
40
330
5
100
AcDbSymbolTableRecord
100
AcDbLinetypeTableRecord
  2
HIDDEN2
 70
     0
  3
Hidden (2x) ____ ____ ____ ____ ____ ____ ____ 
 72
    65
 73
     2
 40
19.05
 49
12.7
 74
     4
 75
     0
340
0
 46
0.0
 50
0.0
 44
0.0
 45
0.0
 49
-6.35
 74
     4
 75
     0
340
0
 46
0.0
 50
0.0
 44
0.0
 45
0.0
  0
ENDTAB
  0
TABLE
  2
LAYER
  5
2
330
0
100
AcDbSymbolTable
 70
     2
  0
LAYER
  5
10
330
2
100
AcDbSymbolTableRecord
100
AcDbLayerTableRecord
  2
0
 70
     0
 62
     7
  6
Continuous
370
    -3
390
F
  0
LAYER
  5
163
330
2
100
AcDbSymbolTableRecord
100
AcDbLayerTableRecord
  2
_Translation
 70
     1
 62
    -7
  6
Continuous
370
    -3
390
F
  0
ENDTAB
  0
TABLE
  2
STYLE
  5
3
330
0
100
AcDbSymbolTable
 70
     4
  0
STYLE
  5
11
330
3
100
AcDbSymbolTableRecord
100
AcDbTextStyleTableRecord
  2
Standard
 70
     0
 40
0.0
 41
1.0
 50
0.0
 71
     0
 42
2.5
  3
txt
  4

  0
STYLE
  5
235
330
3
100
AcDbSymbolTableRecord
100
AcDbTextStyleTableRecord
  2
SEACAD_arial_ttfB
 70
     0
 40
0.0
 41
1.0
 50
0.0
 71
     0
 42
0.2
  3

  4

1001
ACAD
1000
arial.ttf
1071
 33554432
  0
STYLE
  5
23B
330
3
100
AcDbSymbolTableRecord
100
AcDbTextStyleTableRecord
  2
SEACAD_arial_ttf
 70
     0
 40
0.0
 41
1.0
 50
0.0
 71
     0
 42
0.2
  3

  4

1001
ACAD
1000
arial.ttf
1071
        0
  0
STYLE
  5
3B6
330
3
100
AcDbSymbolTableRecord
100
AcDbTextStyleTableRecord
  2
SEACAD_Solid_Edge_ANSI1_Symbols
 70
     0
 40
0.0
 41
1.0
 50
0.0
 71
     0
 42
0.2
  3
semeca1.ttf
  4

1001
ACAD
1000
Solid Edge ANSI1 Symbols
1071
        0
  0
ENDTAB
  0
TABLE
  2
VIEW
  5
6
330
0
100
AcDbSymbolTable
 70
     0
  0
ENDTAB
  0
TABLE
  2
UCS
  5
7
330
0
100
AcDbSymbolTable
 70
     0
  0
ENDTAB
  0
TABLE
  2
APPID
  5
9
330
0
100
AcDbSymbolTable
 70
     1
  0
APPID
  5
12
330
9
100
AcDbSymbolTableRecord
100
AcDbRegAppTableRecord
  2
ACAD
 70
     0
  0
ENDTAB
  0
TABLE
  2
DIMSTYLE
  5
A
330
0
100
AcDbSymbolTable
 70
     1
100
AcDbDimStyleTable
  0
DIMSTYLE
105
27
330
A
100
AcDbSymbolTableRecord
100
AcDbDimStyleTableRecord
  2
ISO-25
 70
     0
 41
2.5
 42
0.625
 43
3.75
 44
1.25
 73
     0
 74
     0
 77
     1
 78
     8
140
2.5
141
2.5
143
0.0393700787
147
0.625
171
     3
172
     1
178
     0
271
     2
272
     2
274
     3
278
    44
283
     0
284
     8
340
11
  0
ENDTAB
  0
TABLE
  2
BLOCK_RECORD
  5
1
330
0
100
AcDbSymbolTable
 70
    29
  0
BLOCK_RECORD
  5
1F
330
1
100
AcDbSymbolTableRecord
100
AcDbBlockTableRecord
  2
*Model_Space
340
22
  0
BLOCK_RECORD
  5
1B
330
1
100
AcDbSymbolTableRecord
100
AcDbBlockTableRecord
  2
*Paper_Space
340
1E
  0
BLOCK_RECORD
  5
231
330
1
100
AcDbSymbolTableRecord
100
AcDbBlockTableRecord
  2
SEANNOT_GROUP
340
0
102
{BLKREFS
331
232
102
}
  0
BLOCK_RECORD
  5
2CE
330
1
100
AcDbSymbolTableRecord
100
AcDbBlockTableRecord
  2
SE
340
0
102
{BLKREFS
331
2CF
102
}
  0
BLOCK_RECORD
  5
2D5
330
1
100
AcDbSymbolTableRecord
100
AcDbBlockTableRecord
  2
SE1
340
0
102
{BLKREFS
331
2D6
102
}
  0
BLOCK_RECORD
  5
2E1
330
1
100
AcDbSymbolTableRecord
100
AcDbBlockTableRecord
  2
SE2
340
0
102
{BLKREFS
331
2E2
102
}
  0
BLOCK_RECORD
  5
2EA
330
1
100
AcDbSymbolTableRecord
100
AcDbBlockTableRecord
  2
SE3
340
0
102
{BLKREFS
331
2EB
102
}
  0
BLOCK_RECORD
  5
2F2
330
1
100
AcDbSymbolTableRecord
100
AcDbBlockTableRecord
  2
GDimGGroup
340
0
102
{BLKREFS
331
2F3
102
}
  0
BLOCK_RECORD
  5
2FE
330
1
100
AcDbSymbolTableRecord
100
AcDbBlockTableRecord
  2
SE4
340
0
102
{BLKREFS
331
2FF
102
}
  0
BLOCK_RECORD
  5
308
330
1
100
AcDbSymbolTableRecord
100
AcDbBlockTableRecord
  2
SE5
340
0
102
{BLKREFS
331
309
102
}
  0
BLOCK_RECORD
  5
312
330
1
100
AcDbSymbolTableRecord
100
AcDbBlockTableRecord
  2
SE6
340
0
102
{BLKREFS
331
313
102
}
  0
BLOCK_RECORD
  5
317
330
1
100
AcDbSymbolTableRecord
100
AcDbBlockTableRecord
  2
SE7
340
0
102
{BLKREFS
331
318
102
}
  0
BLOCK_RECORD
  5
320
330
1
100
AcDbSymbolTableRecord
100
AcDbBlockTableRecord
  2
SE8
340
0
102
{BLKREFS
331
321
102
}
  0
BLOCK_RECORD
  5
328
330
1
100
AcDbSymbolTableRecord
100
AcDbBlockTableRecord
  2
SE9
340
0
102
{BLKREFS
331
329
102
}
  0
BLOCK_RECORD
  5
332
330
1
100
AcDbSymbolTableRecord
100
AcDbBlockTableRecord
  2
GDimGGroup1
340
0
102
{BLKREFS
331
333
102
}
  0
BLOCK_RECORD
  5
33C
330
1
100
AcDbSymbolTableRecord
100
AcDbBlockTableRecord
  2
GDimGGroup2
340
0
102
{BLKREFS
331
33D
102
}
  0
BLOCK_RECORD
  5
346
330
1
100
AcDbSymbolTableRecord
100
AcDbBlockTableRecord
  2
GDimGGroup3
340
0
102
{BLKREFS
331
347
102
}
  0
BLOCK_RECORD
  5
350
330
1
100
AcDbSymbolTableRecord
100
AcDbBlockTableRecord
  2
GDimGGroup4
340
0
102
{BLKREFS
331
351
102
}
  0
BLOCK_RECORD
  5
35A
330
1
100
AcDbSymbolTableRecord
100
AcDbBlockTableRecord
  2
GDimGGroup5
340
0
102
{BLKREFS
331
35B
102
}
  0
BLOCK_RECORD
  5
364
330
1
100
AcDbSymbolTableRecord
100
AcDbBlockTableRecord
  2
GDimGGroup6
340
0
102
{BLKREFS
331
365
102
}
  0
BLOCK_RECORD
  5
36E
330
1
100
AcDbSymbolTableRecord
100
AcDbBlockTableRecord
  2
GDimGGroup7
340
0
102
{BLKREFS
331
36F
102
}
  0
BLOCK_RECORD
  5
378
330
1
100
AcDbSymbolTableRecord
100
AcDbBlockTableRecord
  2
GDimGGroup8
340
0
102
{BLKREFS
331
379
102
}
  0
BLOCK_RECORD
  5
382
330
1
100
AcDbSymbolTableRecord
100
AcDbBlockTableRecord
  2
GDimGGroup9
340
0
102
{BLKREFS
331
383
102
}
  0
BLOCK_RECORD
  5
38C
330
1
100
AcDbSymbolTableRecord
100
AcDbBlockTableRecord
  2
GDimGGroup10
340
0
102
{BLKREFS
331
38D
102
}
  0
BLOCK_RECORD
  5
397
330
1
100
AcDbSymbolTableRecord
100
AcDbBlockTableRecord
  2
GDimGGroup11
340
0
102
{BLKREFS
331
398
102
}
  0
BLOCK_RECORD
  5
3A2
330
1
100
AcDbSymbolTableRecord
100
AcDbBlockTableRecord
  2
GDimGGroup12
340
0
102
{BLKREFS
331
3A3
102
}
  0
BLOCK_RECORD
  5
3AD
330
1
100
AcDbSymbolTableRecord
100
AcDbBlockTableRecord
  2
GDimGGroup13
340
0
102
{BLKREFS
331
3AE
102
}
  0
BLOCK_RECORD
  5
3BB
330
1
100
AcDbSymbolTableRecord
100
AcDbBlockTableRecord
  2
GDimGGroup14
340
0
102
{BLKREFS
331
3BC
102
}
  0
BLOCK_RECORD
  5
3C5
330
1
100
AcDbSymbolTableRecord
100
AcDbBlockTableRecord
  2
GDimGGroup15
340
0
102
{BLKREFS
331
3C6
102
}
  0
BLOCK_RECORD
  5
3CF
330
1
100
AcDbSymbolTableRecord
100
AcDbBlockTableRecord
  2
SE10
340
0
102
{BLKREFS
331
3D0
102
}
  0
ENDTAB
  0
ENDSEC
  0
SECTION
  2
BLOCKS
  0
BLOCK
  5
20
330
1F
100
AcDbEntity
  8
0
100
AcDbBlockBegin
  2
*Model_Space
 70
     0
 10
0.0
 20
0.0
 30
0.0
  3
*Model_Space
  1

  0
ENDBLK
  5
21
330
1F
100
AcDbEntity
  8
0
100
AcDbBlockEnd
  0
BLOCK
  5
1C
330
1B
100
AcDbEntity
 67
     1
  8
0
100
AcDbBlockBegin
  2
*Paper_Space
 70
     0
 10
0.0
 20
0.0
 30
0.0
  3
*Paper_Space
  1

  0
ENDBLK
  5
1D
330
1B
100
AcDbEntity
 67
     1
  8
0
100
AcDbBlockEnd
  0
BLOCK
  5
239
330
231
100
AcDbEntity
  8
0
100
AcDbBlockBegin
  2
SEANNOT_GROUP
 70
     0
 10
0.0
 20
0.0
 30
0.0
  3
SEANNOT_GROUP
  1

  0
LWPOLYLINE
  5
233
330
231
100
AcDbEntity
  8
0
  6
Continuous
 62
     7
100
AcDbPolyline
 90
        2
 70
     0
 43
0.0
 10
1462.2401423388
 20
-2699.6015869366
 10
1440.3220192018
 20
-2586.8919788218
  0
HATCH
  5
234
330
231
100
AcDbEntity
  8
0
  6
Continuous
 62
     7
100
AcDbHatch
 10
0.0
 20
0.0
 30
0.0
210
0.0
220
0.0
230
1.0
  2
SOLID
 70
     1
 71
     0
 91
        1
 92
        1
 93
        3
 72
     1
 10
1453.083710342368
 20
-2621.084655297248
 11
1440.322019201779
 21
-2586.891978821825
 72
     1
 10
1440.322019201779
 20
-2586.891978821825
 11
1441.304372504901
 21
-2623.375329371199
 72
     1
 10
1441.304372504901
 20
-2623.375329371199
 11
1453.083710342368
 21
-2621.084655297247
 97
        0
 75
     0
 76
     1
 98
        0
  0
TEXT
  5
236
330
231
100
AcDbEntity
  8
0
  6
Continuous
 62
     7
100
AcDbText
 10
1470.6401423388
 20
-2711.6015869366
 30
0.0
 40
24.0
  1
CAVO ALIMENTAZIONE
  7
SEACAD_arial_ttfB
 11
1470.6401423388
 21
-2687.6015869366
 31
0.0
100
AcDbText
 73
     3
  0
TEXT
  5
237
330
231
100
AcDbEntity
  8
0
  6
Continuous
 62
     7
100
AcDbText
 10
1470.6401423388
 20
-2747.6015869366
 30
0.0
 40
24.0
  1
POWER CABLE
  7
SEACAD_arial_ttfB
 11
1470.6401423388
 21
-2723.6015869366
 31
0.0
100
AcDbText
 73
     3
  0
TEXT
  5
238
330
231
100
AcDbEntity
  8
0
  6
Continuous
 62
     7
100
AcDbText
 10
1470.6401423388
 20
-2783.6015869366
 30
0.0
 40
24.0
  1
L = 1500 mm
  7
SEACAD_arial_ttfB
 11
1470.6401423388
 21
-2759.6015869366
 31
0.0
100
AcDbText
 73
     3
  0
ENDBLK
  5
23A
330
231
100
AcDbEntity
  8
0
100
AcDbBlockEnd
  0
BLOCK
  5
2D3
330
2CE
100
AcDbEntity
  8
0
100
AcDbBlockBegin
  2
SE
 70
     0
 10
0.0
 20
0.0
 30
0.0
  3
SE
  1

  0
LINE
  5
2D0
330
2CE
100
AcDbEntity
  8
0
  6
Continuous
 62
     7
100
AcDbLine
 10
1378.3155808117
 20
-2475.4886491292
 30
0.0
 11
1394.9479494153
 21
-2475.4886491292
 31
0.0
  0
ARC
  5
2D1
330
2CE
100
AcDbEntity
  8
0
  6
Continuous
 62
     7
100
AcDbCircle
 10
1394.9479494153
 20
-2525.6856303749
 30
0.0
 40
50.19698124577644
100
AcDbArc
 50
334.0215514054
 51
90.0
  0
ARC
  5
2D2
330
2CE
100
AcDbEntity
  8
0
  6
Continuous
 62
     7
100
AcDbCircle
 10
1465.5249876336
 20
-2560.0754957912
 30
0.0
 40
28.3127708046793
100
AcDbArc
 50
154.0215514054
 51
267.4926695195
  0
ENDBLK
  5
2D4
330
2CE
100
AcDbEntity
  8
0
100
AcDbBlockEnd
  0
BLOCK
  5
2DF
330
2D5
100
AcDbEntity
  8
0
100
AcDbBlockBegin
  2
SE1
 70
     0
 10
0.0
 20
0.0
 30
0.0
  3
SE1
  1

  0
LINE
  5
2D7
330
2D5
100
AcDbEntity
  8
0
  6
Continuous
 62
     7
100
AcDbLine
 10
2519.4399086144
 20
-2186.9886491292
 30
0.0
 11
2519.4399086144
 21
-2046.9886491292
 31
0.0
  0
ARC
  5
2D8
330
2D5
100
AcDbEntity
  8
0
  6
Continuous
 62
     7
100
AcDbCircle
 10
2529.4399086144
 20
-2046.9886491292
 30
0.0
 40
10.0
100
AcDbArc
 50
90.0
 51
180.0
  0
LINE
  5
2D9
330
2D5
100
AcDbEntity
  8
0
  6
Continuous
 62
     7
100
AcDbLine
 10
2529.4399086144
 20
-2036.9886491292
 30
0.0
 11
2709.4399086144
 21
-2036.9886491292
 31
0.0
  0
ARC
  5
2DA
330
2D5
100
AcDbEntity
  8
0
  6
Continuous
 62
     7
100
AcDbCircle
 10
2709.4399086144
 20
-2046.9886491292
 30
0.0
 40
10.0
100
AcDbArc
 50
0.0
 51
90.0
  0
LINE
  5
2DB
330
2D5
100
AcDbEntity
  8
0
  6
Continuous
 62
     7
100
AcDbLine
 10
2719.4399086144
 20
-2046.9886491292
 30
0.0
 11
2719.4399086144
 21
-2186.9886491292
 31
0.0
  0
ARC
  5
2DC
330
2D5
100
AcDbEntity
  8
0
  6
Continuous
 62
     7
100
AcDbCircle
 10
2709.4399086144
 20
-2186.9886491292
 30
0.0
 40
10.0
100
AcDbArc
 50
270.0
 51
0.0
  0
LINE
  5
2DD
330
2D5
100
AcDbEntity
  8
0
  6
Continuous
 62
     7
100
AcDbLine
 10
2709.4399086144
 20
-2196.9886491292
 30
0.0
 11
2529.4399086144
 21
-2196.9886491292
 31
0.0
  0
ARC
  5
2DE
330
2D5
100
AcDbEntity
  8
0
  6
Continuous
 62
     7
100
AcDbCircle
 10
2529.4399086144
 20
-2186.9886491292
 30
0.0
 40
10.0
100
AcDbArc
 50
180.0
 51
270.0
  0
ENDBLK
  5
2E0
330
2D5
100
AcDbEntity
  8
0
100
AcDbBlockEnd
  0
BLOCK
  5
2E7
330
2E1
100
AcDbEntity
  8
0
100
AcDbBlockBegin
  2
SE2
 70
     0
 10
0.0
 20
0.0
 30
0.0
  3
SE2
  1

  0
LINE
  5
2E3
330
2E1
100
AcDbEntity
  8
0
  6
Continuous
 62
     7
100
AcDbLine
 10
2544.4399086144
 20
-2140.4886491292
 30
0.0
 11
2591.4399086144
 21
-2140.4886491292
 31
0.0
  0
LINE
  5
2E4
330
2E1
100
AcDbEntity
  8
0
  6
Continuous
 62
     7
100
AcDbLine
 10
2591.4399086144
 20
-2140.4886491292
 30
0.0
 11
2591.4399086144
 21
-2093.4886491292
 31
0.0
  0
LINE
  5
2E5
330
2E1
100
AcDbEntity
  8
0
  6
Continuous
 62
     7
100
AcDbLine
 10
2591.4399086144
 20
-2093.4886491292
 30
0.0
 11
2544.4399086144
 21
-2093.4886491292
 31
0.0
  0
LINE
  5
2E6
330
2E1
100
AcDbEntity
  8
0
  6
Continuous
 62
     7
100
AcDbLine
 10
2544.4399086144
 20
-2093.4886491292
 30
0.0
 11
2544.4399086144
 21
-2140.4886491292
 31
0.0
  0
ENDBLK
  5
2E8
330
2E1
100
AcDbEntity
  8
0
100
AcDbBlockEnd
  0
BLOCK
  5
2F0
330
2EA
100
AcDbEntity
  8
0
100
AcDbBlockBegin
  2
SE3
 70
     0
 10
0.0
 20
0.0
 30
0.0
  3
SE3
  1

  0
ARC
  5
2EC
330
2EA
100
AcDbEntity
  8
0
  6
Continuous
 62
     7
100
AcDbCircle
 10
2661.9399086144
 20
-2116.9886491291
 30
0.0
 40
11.25000000000046
100
AcDbArc
 50
264.0
 51
280.0
  0
LINE
  5
2ED
330
2EA
100
AcDbEntity
  8
0
  6
Continuous
 62
     7
100
AcDbLine
 10
2663.8934506132
 20
-2128.0677363505
 30
0.0
 11
2663.8934506132
 21
-2105.9095619078
 31
0.0
  0
ARC
  5
2EE
330
2EA
100
AcDbEntity
  8
0
  6
Continuous
 62
     7
100
AcDbCircle
 10
2661.9399086144
 20
-2116.9886491292
 30
0.0
 40
11.25
100
AcDbArc
 50
80.0
 51
96.0
  0
LINE
  5
2EF
330
2EA
100
AcDbEntity
  8
0
  6
Continuous
 62
     7
100
AcDbLine
 10
2660.7639634027
 20
-2105.8002778063
 30
0.0
 11
2660.7639634027
 21
-2128.177020452
 31
0.0
  0
ENDBLK
  5
2F1
330
2EA
100
AcDbEntity
  8
0
100
AcDbBlockEnd
  0
BLOCK
  5
2FC
330
2F2
100
AcDbEntity
  8
0
100
AcDbBlockBegin
  2
GDimGGroup
 70
     0
 10
0.0
 20
0.0
 30
0.0
  3
GDimGGroup
  1

  0
HATCH
  5
2F4
330
2F2
100
AcDbEntity
  8
0
  6
Continuous
 62
     7
100
AcDbHatch
 10
0.0
 20
0.0
 30
0.0
210
0.0
220
0.0
230
1.0
  2
SOLID
 70
     1
 71
     0
 91
        1
 92
        1
 93
        3
 72
     1
 10
1916.414699743865
 20
-1968.988649605995
 11
1920.664699664392
 21
-1994.488649129157
 72
     1
 10
1920.664699664392
 20
-1994.488649129157
 11
1924.914699584919
 21
-1968.988649605995
 72
     1
 10
1924.914699584919
 20
-1968.988649605995
 11
1916.414699743865
 21
-1968.988649605995
 97
        0
 75
     0
 76
     1
 98
        0
  0
HATCH
  5
2F5
330
2F2
100
AcDbEntity
  8
0
  6
Continuous
 62
     7
100
AcDbHatch
 10
0.0
 20
0.0
 30
0.0
210
0.0
220
0.0
230
1.0
  2
SOLID
 70
     1
 71
     0
 91
        1
 92
        1
 93
        3
 72
     1
 10
1916.164699547666
 20
-2281.488649829512
 11
1925.164699781117
 21
-2281.488649829512
 72
     1
 10
1925.164699781117
 20
-2281.488649829512
 11
1920.664699664392
 21
-2254.488649129157
 72
     1
 10
1920.664699664392
 20
-2254.488649129157
 11
1916.164699547666
 21
-2281.488649829512
 97
        0
 75
     0
 76
     1
 98
        0
  0
LINE
  5
2F6
330
2F2
100
AcDbEntity
  8
0
  6
Continuous
 62
     7
100
AcDbLine
 10
1955.6899088529
 20
-1994.4886491292
 30
0.0
 11
1907.9146999028
 21
-1994.4886491292
 31
0.0
  0
LINE
  5
2F7
330
2F2
100
AcDbEntity
  8
0
  6
Continuous
 62
     7
100
AcDbLine
 10
1996.6899088529
 20
-2254.4886491292
 30
0.0
 11
1907.9146999028
 21
-2254.4886491292
 31
0.0
  0
LINE
  5
2F8
330
2F2
100
AcDbEntity
  8
0
  6
Continuous
 62
     7
100
AcDbLine
 10
1920.6646996644
 20
-1940.4886477284
 30
0.0
 11
1920.6646996644
 21
-1994.4886491292
 31
0.0
  0
LINE
  5
2F9
330
2F2
100
AcDbEntity
  8
0
  6
Continuous
 62
     7
100
AcDbLine
 10
1920.6646996644
 20
-2254.4886491292
 30
0.0
 11
1920.6646996644
 21
-2308.4886505299
 31
0.0
  0
TEXT
  5
2FA
330
2F2
100
AcDbEntity
  8
0
  6
Continuous
 62
     7
100
AcDbText
 10
1914.2896996644
 20
-2103.922340013
 30
0.0
 40
25.5
  1
260
 50
90.0
  7
SEACAD_arial_ttf
 11
1888.7896996644
 21
-2103.922340013
 31
0.0
100
AcDbText
 73
     3
  0
TEXT
  5
2FB
330
2F2
100
AcDbEntity
  8
0
  6
Continuous
 62
     7
100
AcDbText
 10
1914.2896996644
 20
-2204.924513926
 30
0.0
 40
25.5
  1
H int 
 50
90.0
  7
SEACAD_arial_ttf
 11
1888.7896996644
 21
-2204.924513926
 31
0.0
100
AcDbText
 73
     3
  0
ENDBLK
  5
2FD
330
2F2
100
AcDbEntity
  8
0
100
AcDbBlockEnd
  0
BLOCK
  5
306
330
2FE
100
AcDbEntity
  8
0
100
AcDbBlockBegin
  2
SE4
 70
     0
 10
0.0
 20
0.0
 30
0.0
  3
SE4
  1

  0
LINE
  5
300
330
2FE
100
AcDbEntity
  8
0
  6
Continuous
 62
     7
100
AcDbLine
 10
2437.1138646945
 20
-1914.904902196
 30
0.0
 11
2439.0703850866
 21
-1916.4611887876
 31
0.0
  0
LINE
  5
301
330
2FE
100
AcDbEntity
  8
0
  6
Continuous
 62
     7
100
AcDbLine
 10
2439.0703850866
 20
-1916.4611887876
 30
0.0
 11
2441.3964290066
 21
-1915.5449357208
 31
0.0
  0
LINE
  5
302
330
2FE
100
AcDbEntity
  8
0
  6
Continuous
 62
     7
100
AcDbLine
 10
2441.3964290066
 20
-1915.5449357208
 30
0.0
 11
2441.7659525344
 21
-1913.0723960623
 31
0.0
  0
LINE
  5
303
330
2FE
100
AcDbEntity
  8
0
  6
Continuous
 62
     7
100
AcDbLine
 10
2441.7659525344
 20
-1913.0723960623
 30
0.0
 11
2439.8094321423
 21
-1911.5161094708
 31
0.0
  0
LINE
  5
304
330
2FE
100
AcDbEntity
  8
0
  6
Continuous
 62
     7
100
AcDbLine
 10
2439.8094321423
 20
-1911.5161094708
 30
0.0
 11
2437.4833882223
 21
-1912.4323625376
 31
0.0
  0
LINE
  5
305
330
2FE
100
AcDbEntity
  8
0
  6
Continuous
 62
     7
100
AcDbLine
 10
2437.4833882223
 20
-1912.4323625376
 30
0.0
 11
2437.1138646945
 21
-1914.904902196
 31
0.0
  0
ENDBLK
  5
307
330
2FE
100
AcDbEntity
  8
0
100
AcDbBlockEnd
  0
BLOCK
  5
310
330
308
100
AcDbEntity
  8
0
100
AcDbBlockBegin
  2
SE5
 70
     0
 10
0.0
 20
0.0
 30
0.0
  3
SE5
  1

  0
LINE
  5
30A
330
308
100
AcDbEntity
  8
0
  6
Continuous
 62
     7
100
AcDbLine
 10
2441.8939765731
 20
-1914.4656716176
 30
0.0
 11
2441.0800561869
 21
-1912.1018751786
 31
0.0
  0
LINE
  5
30B
330
308
100
AcDbEntity
  8
0
  6
Continuous
 62
     7
100
AcDbLine
 10
2441.0800561869
 20
-1912.1018751786
 30
0.0
 11
2438.6259882283
 21
-1911.6248526902
 31
0.0
  0
LINE
  5
30C
330
308
100
AcDbEntity
  8
0
  6
Continuous
 62
     7
100
AcDbLine
 10
2438.6259882283
 20
-1911.6248526902
 30
0.0
 11
2436.9858406558
 21
-1913.5116266407
 31
0.0
  0
LINE
  5
30D
330
308
100
AcDbEntity
  8
0
  6
Continuous
 62
     7
100
AcDbLine
 10
2436.9858406558
 20
-1913.5116266407
 30
0.0
 11
2437.799761042
 21
-1915.8754230797
 31
0.0
  0
LINE
  5
30E
330
308
100
AcDbEntity
  8
0
  6
Continuous
 62
     7
100
AcDbLine
 10
2437.799761042
 20
-1915.8754230797
 30
0.0
 11
2440.2538290006
 21
-1916.3524455682
 31
0.0
  0
LINE
  5
30F
330
308
100
AcDbEntity
  8
0
  6
Continuous
 62
     7
100
AcDbLine
 10
2440.2538290006
 20
-1916.3524455682
 30
0.0
 11
2441.8939765731
 21
-1914.4656716176
 31
0.0
  0
ENDBLK
  5
311
330
308
100
AcDbEntity
  8
0
100
AcDbBlockEnd
  0
BLOCK
  5
315
330
312
100
AcDbEntity
  8
0
100
AcDbBlockBegin
  2
SE6
 70
     0
 10
0.0
 20
0.0
 30
0.0
  3
SE6
  1

  0
LINE
  5
314
330
312
100
AcDbEntity
  8
0
  6
Continuous
 62
     7
100
AcDbLine
 10
198.5835207507
 20
-2153.5289722584
 30
0.0
 11
176.5959984641
 21
-2153.5289722584
 31
0.0
  0
ENDBLK
  5
316
330
312
100
AcDbEntity
  8
0
100
AcDbBlockEnd
  0
BLOCK
  5
31E
330
317
100
AcDbEntity
  8
0
100
AcDbBlockBegin
  2
SE7
 70
     0
 10
0.0
 20
0.0
 30
0.0
  3
SE7
  1

  0
LINE
  5
319
330
317
100
AcDbEntity
  8
0
  6
Continuous
 62
     7
100
AcDbLine
 10
213.5835207507
 20
-2143.5289722584
 30
0.0
 11
206.5835207507
 21
-2143.5289722584
 31
0.0
  0
ARC
  5
31A
330
317
100
AcDbEntity
  8
0
  6
Continuous
 62
     7
100
AcDbCircle
 10
206.5835207507
 20
-2151.5289722584
 30
0.0
 40
8.0
100
AcDbArc
 50
90.0
 51
180.0
  0
LINE
  5
31B
330
317
100
AcDbEntity
  8
0
  6
Continuous
 62
     7
100
AcDbLine
 10
198.5835207507
 20
-2151.5289722584
 30
0.0
 11
198.5835207507
 21
-2155.5289722584
 31
0.0
  0
ARC
  5
31C
330
317
100
AcDbEntity
  8
0
  6
Continuous
 62
     7
100
AcDbCircle
 10
206.5835207507
 20
-2155.5289722584
 30
0.0
 40
8.0
100
AcDbArc
 50
180.0
 51
270.0
  0
LINE
  5
31D
330
317
100
AcDbEntity
  8
0
  6
Continuous
 62
     7
100
AcDbLine
 10
206.5835207507
 20
-2163.5289722584
 30
0.0
 11
213.5835207507
 21
-2163.5289722584
 31
0.0
  0
ENDBLK
  5
31F
330
317
100
AcDbEntity
  8
0
100
AcDbBlockEnd
  0
BLOCK
  5
326
330
320
100
AcDbEntity
  8
0
100
AcDbBlockBegin
  2
SE8
 70
     0
 10
0.0
 20
0.0
 30
0.0
  3
SE8
  1

  0
LINE
  5
322
330
320
100
AcDbEntity
  8
0
  6
Continuous
 62
     7
100
AcDbLine
 10
2349.0012560665
 20
-1979.4886491292
 30
0.0
 11
2328.0012560665
 21
-1979.4886491292
 31
0.0
  0
ARC
  5
323
330
320
100
AcDbEntity
  8
0
  6
Continuous
 62
     7
100
AcDbCircle
 10
2373.1404478257
 20
-1985.1886491292
 30
0.0
 40
45.49765524362738
100
AcDbArc
 50
172.803006063
 51
191.7947371526
  0
LINE
  5
324
330
320
100
AcDbEntity
  8
0
  6
Continuous
 62
     7
100
AcDbLine
 10
2328.6034224123
 20
-1994.4886491292
 30
0.0
 11
2349.6034224123
 21
-1994.4886491292
 31
0.0
  0
ARC
  5
325
330
320
100
AcDbEntity
  8
0
  6
Continuous
 62
     7
100
AcDbCircle
 10
2394.1404478257
 20
-1985.1886491292
 30
0.0
 40
45.49765524362142
100
AcDbArc
 50
172.803006063
 51
191.7947371526
  0
ENDBLK
  5
327
330
320
100
AcDbEntity
  8
0
100
AcDbBlockEnd
  0
BLOCK
  5
32E
330
328
100
AcDbEntity
  8
0
100
AcDbBlockBegin
  2
SE9
 70
     0
 10
0.0
 20
0.0
 30
0.0
  3
SE9
  1

  0
LINE
  5
32A
330
328
100
AcDbEntity
  8
0
  6
Continuous
 62
     7
100
AcDbLine
 10
2353.6244431773
 20
-1964.4886491292
 30
0.0
 11
2332.6244431773
 21
-1964.4886491292
 31
0.0
  0
ARC
  5
32B
330
328
100
AcDbEntity
  8
0
  6
Continuous
 62
     7
100
AcDbCircle
 10
2373.1404478257
 20
-1985.1886491292
 30
0.0
 40
45.49765524362783
100
AcDbArc
 50
152.9370924611
 51
168.2052628474
  0
LINE
  5
32C
330
328
100
AcDbEntity
  8
0
  6
Continuous
 62
     7
100
AcDbLine
 10
2328.6034224123
 20
-1975.8886491292
 30
0.0
 11
2349.6034224123
 21
-1975.8886491292
 31
0.0
  0
ARC
  5
32D
330
328
100
AcDbEntity
  8
0
  6
Continuous
 62
     7
100
AcDbCircle
 10
2394.1404478257
 20
-1985.1886491292
 30
0.0
 40
45.49765524363016
100
AcDbArc
 50
152.9370924611
 51
168.2052628474
  0
ENDBLK
  5
32F
330
328
100
AcDbEntity
  8
0
100
AcDbBlockEnd
  0
BLOCK
  5
33A
330
332
100
AcDbEntity
  8
0
100
AcDbBlockBegin
  2
GDimGGroup1
 70
     0
 10
0.0
 20
0.0
 30
0.0
  3
GDimGGroup1
  1

  0
HATCH
  5
334
330
332
100
AcDbEntity
  8
0
  6
Continuous
 62
     7
100
AcDbHatch
 10
0.0
 20
0.0
 30
0.0
210
0.0
220
0.0
230
1.0
  2
SOLID
 70
     1
 71
     0
 91
        1
 92
        1
 93
        3
 72
     1
 10
2098.877410462179
 20
-2792.336325157966
 11
2098.877410462179
 21
-2781.002991208718
 72
     1
 10
2098.877410462179
 20
-2781.002991208718
 11
2064.877408614435
 21
-2786.669658183342
 72
     1
 10
2064.877408614435
 20
-2786.669658183342
 11
2098.877410462179
 21
-2792.336325157966
 97
        0
 75
     0
 76
     1
 98
        0
  0
HATCH
  5
335
330
332
100
AcDbEntity
  8
0
  6
Continuous
 62
     7
100
AcDbHatch
 10
0.0
 20
0.0
 30
0.0
210
0.0
220
0.0
230
1.0
  2
SOLID
 70
     1
 71
     0
 91
        1
 92
        1
 93
        3
 72
     1
 10
2708.877417316713
 20
-2792.669657925055
 11
2744.877415766992
 21
-2786.669658183342
 72
     1
 10
2744.877415766992
 20
-2786.669658183342
 11
2708.877417316713
 21
-2780.669658441629
 72
     1
 10
2708.877417316713
 20
-2780.669658441629
 11
2708.877417316713
 21
-2792.669657925055
 97
        0
 75
     0
 76
     1
 98
        0
  0
LINE
  5
336
330
332
100
AcDbEntity
  8
0
  6
Continuous
 62
     7
100
AcDbLine
 10
2064.8774086144
 20
-2582.875368803
 30
0.0
 11
2064.8774086144
 21
-2803.6696591072
 31
0.0
  0
LINE
  5
337
330
332
100
AcDbEntity
  8
0
  6
Continuous
 62
     7
100
AcDbLine
 10
2744.8774086144
 20
-2582.875368803
 30
0.0
 11
2744.8774086144
 21
-2803.6696591072
 31
0.0
  0
LINE
  5
338
330
332
100
AcDbEntity
  8
0
  6
Continuous
 62
     7
100
AcDbLine
 10
2064.8774086144
 20
-2786.6696581833
 30
0.0
 11
2744.877415767
 21
-2786.6696581833
 31
0.0
  0
TEXT
  5
339
330
332
100
AcDbEntity
  8
0
  6
Continuous
 62
     7
100
AcDbText
 10
2364.9643687125
 20
-2778.1696581833
 30
0.0
 40
34.0
  1
680
  7
SEACAD_arial_ttf
 11
2364.9643687125
 21
-2744.1696581833
 31
0.0
100
AcDbText
 73
     3
  0
ENDBLK
  5
33B
330
332
100
AcDbEntity
  8
0
100
AcDbBlockEnd
  0
BLOCK
  5
344
330
33C
100
AcDbEntity
  8
0
100
AcDbBlockBegin
  2
GDimGGroup2
 70
     0
 10
0.0
 20
0.0
 30
0.0
  3
GDimGGroup2
  1

  0
HATCH
  5
33E
330
33C
100
AcDbEntity
  8
0
  6
Continuous
 62
     7
100
AcDbHatch
 10
0.0
 20
0.0
 30
0.0
210
0.0
220
0.0
230
1.0
  2
SOLID
 70
     1
 71
     0
 91
        1
 92
        1
 93
        3
 72
     1
 10
113.7975731993442
 20
-1892.528974106102
 11
125.1309071485922
 21
-1892.528974106102
 72
     1
 10
125.1309071485922
 20
-1892.528974106102
 11
119.4642401739682
 21
-1858.528972258358
 72
     1
 10
119.4642401739682
 20
-1858.528972258358
 11
113.7975731993442
 21
-1892.528974106102
 97
        0
 75
     0
 76
     1
 98
        0
  0
HATCH
  5
33F
330
33C
100
AcDbEntity
  8
0
  6
Continuous
 62
     7
100
AcDbHatch
 10
0.0
 20
0.0
 30
0.0
210
0.0
220
0.0
230
1.0
  2
SOLID
 70
     1
 71
     0
 91
        1
 92
        1
 93
        3
 72
     1
 10
113.464240432255
 20
-2117.528960695057
 11
119.4642401739682
 21
-2153.528959145337
 72
     1
 10
119.4642401739682
 20
-2153.528959145337
 11
125.4642399156814
 21
-2117.528960695057
 72
     1
 10
125.4642399156814
 20
-2117.528960695057
 11
113.464240432255
 21
-2117.528960695057
 97
        0
 75
     0
 76
     1
 98
        0
  0
LINE
  5
340
330
33C
100
AcDbEntity
  8
0
  6
Continuous
 62
     7
100
AcDbLine
 10
196.5835198268
 20
-1858.5289722584
 30
0.0
 11
102.4642392501
 21
-1858.5289722584
 31
0.0
  0
LINE
  5
341
330
33C
100
AcDbEntity
  8
0
  6
Continuous
 62
     7
100
AcDbLine
 10
159.5959975402
 20
-2153.5289722584
 30
0.0
 11
102.4642392501
 21
-2153.5289722584
 31
0.0
  0
LINE
  5
342
330
33C
100
AcDbEntity
  8
0
  6
Continuous
 62
     7
100
AcDbLine
 10
119.464240174
 20
-1858.5289722584
 30
0.0
 11
119.464240174
 21
-2153.5289591453
 31
0.0
  0
TEXT
  5
343
330
33C
100
AcDbEntity
  8
0
  6
Continuous
 62
     7
100
AcDbText
 10
110.964240174
 20
-2045.9420091801
 30
0.0
 40
34.0
  1
295
 50
90.0
  7
SEACAD_arial_ttf
 11
76.964240174
 21
-2045.9420091801
 31
0.0
100
AcDbText
 73
     3
  0
ENDBLK
  5
345
330
33C
100
AcDbEntity
  8
0
100
AcDbBlockEnd
  0
BLOCK
  5
34E
330
346
100
AcDbEntity
  8
0
100
AcDbBlockBegin
  2
GDimGGroup3
 70
     0
 10
0.0
 20
0.0
 30
0.0
  3
GDimGGroup3
  1

  0
HATCH
  5
348
330
346
100
AcDbEntity
  8
0
  6
Continuous
 62
     7
100
AcDbHatch
 10
0.0
 20
0.0
 30
0.0
210
0.0
220
0.0
230
1.0
  2
SOLID
 70
     1
 71
     0
 91
        1
 92
        1
 93
        3
 72
     1
 10
-13.65806365959595
 20
-1892.528974106102
 11
-2.324729710347953
 21
-1892.528974106102
 72
     1
 10
-2.324729710347952
 20
-1892.528974106102
 11
-7.991396684971953
 21
-1858.528972258358
 72
     1
 10
-7.991396684971952
 20
-1858.528972258358
 11
-13.65806365959595
 21
-1892.528974106102
 97
        0
 75
     0
 76
     1
 98
        0
  0
HATCH
  5
349
330
346
100
AcDbEntity
  8
0
  6
Continuous
 62
     7
100
AcDbHatch
 10
0.0
 20
0.0
 30
0.0
210
0.0
220
0.0
230
1.0
  2
SOLID
 70
     1
 71
     0
 91
        1
 92
        1
 93
        3
 72
     1
 10
-13.99139642668511
 20
-2627.528980960637
 11
-7.991396684971904
 21
-2663.528979410916
 72
     1
 10
-7.991396684971903
 20
-2663.528979410916
 11
-1.991396943258699
 21
-2627.528980960637
 72
     1
 10
-1.991396943258699
 20
-2627.528980960637
 11
-13.99139642668511
 21
-2627.528980960637
 97
        0
 75
     0
 76
     1
 98
        0
  0
LINE
  5
34A
330
346
100
AcDbEntity
  8
0
  6
Continuous
 62
     7
100
AcDbLine
 10
196.5835198268
 20
-1858.5289722584
 30
0.0
 11
-24.9913976088
 21
-1858.5289722584
 31
0.0
  0
LINE
  5
34B
330
346
100
AcDbEntity
  8
0
  6
Continuous
 62
     7
100
AcDbLine
 10
351.5835198268
 20
-2663.5289722584
 30
0.0
 11
-24.9913976088
 21
-2663.5289722584
 31
0.0
  0
LINE
  5
34C
330
346
100
AcDbEntity
  8
0
  6
Continuous
 62
     7
100
AcDbLine
 10
-7.991396685
 20
-1858.5289722584
 30
0.0
 11
-7.991396685
 21
-2663.5289794109
 31
0.0
  0
TEXT
  5
34D
330
346
100
AcDbEntity
  8
0
  6
Continuous
 62
     7
100
AcDbText
 10
-16.491396685
 20
-2300.9420193129
 30
0.0
 40
34.0
  1
805
 50
90.0
  7
SEACAD_arial_ttf
 11
-50.491396685
 21
-2300.9420193129
 31
0.0
100
AcDbText
 73
     3
  0
ENDBLK
  5
34F
330
346
100
AcDbEntity
  8
0
100
AcDbBlockEnd
  0
BLOCK
  5
358
330
350
100
AcDbEntity
  8
0
100
AcDbBlockBegin
  2
GDimGGroup4
 70
     0
 10
0.0
 20
0.0
 30
0.0
  3
GDimGGroup4
  1

  0
HATCH
  5
352
330
350
100
AcDbEntity
  8
0
  6
Continuous
 62
     7
100
AcDbHatch
 10
0.0
 20
0.0
 30
0.0
210
0.0
220
0.0
230
1.0
  2
SOLID
 70
     1
 71
     0
 91
        1
 92
        1
 93
        3
 72
     1
 10
247.5835225984181
 20
-1772.837377429197
 11
213.5835207506741
 21
-1778.50404440382
 72
     1
 10
213.5835207506741
 20
-1778.50404440382
 11
247.5835225984181
 21
-1784.170711378444
 72
     1
 10
247.5835225984181
 20
-1784.170711378444
 11
247.5835225984181
 21
-1772.837377429197
 97
        0
 75
     0
 76
     1
 98
        0
  0
HATCH
  5
353
330
350
100
AcDbEntity
  8
0
  6
Continuous
 62
     7
100
AcDbHatch
 10
0.0
 20
0.0
 30
0.0
210
0.0
220
0.0
230
1.0
  2
SOLID
 70
     1
 71
     0
 91
        1
 92
        1
 93
        3
 72
     1
 10
487.5835246845807
 20
-1772.504044662107
 11
487.5835246845807
 21
-1784.504044145534
 72
     1
 10
487.5835246845807
 20
-1784.504044145534
 11
523.5835231348599
 21
-1778.50404440382
 72
     1
 10
523.5835231348599
 20
-1778.50404440382
 11
487.5835246845807
 21
-1772.504044662107
 97
        0
 75
     0
 76
     1
 98
        0
  0
LINE
  5
354
330
350
100
AcDbEntity
  8
0
  6
Continuous
 62
     7
100
AcDbLine
 10
213.5835207507
 20
-1841.5289713345
 30
0.0
 11
213.5835207507
 21
-1761.5040434799
 31
0.0
  0
LINE
  5
355
330
350
100
AcDbEntity
  8
0
  6
Continuous
 62
     7
100
AcDbLine
 10
523.5835207507
 20
-1841.5289713345
 30
0.0
 11
523.5835207507
 21
-1761.5040434799
 31
0.0
  0
LINE
  5
356
330
350
100
AcDbEntity
  8
0
  6
Continuous
 62
     7
100
AcDbLine
 10
213.5835207507
 20
-1778.5040444038
 30
0.0
 11
523.5835231349
 21
-1778.5040444038
 31
0.0
  0
TEXT
  5
357
330
350
100
AcDbEntity
  8
0
  6
Continuous
 62
     7
100
AcDbText
 10
328.6704784645
 20
-1770.0040444038
 30
0.0
 40
34.0
  1
310
  7
SEACAD_arial_ttf
 11
328.6704784645
 21
-1736.0040444038
 31
0.0
100
AcDbText
 73
     3
  0
ENDBLK
  5
359
330
350
100
AcDbEntity
  8
0
100
AcDbBlockEnd
  0
BLOCK
  5
362
330
35A
100
AcDbEntity
  8
0
100
AcDbBlockBegin
  2
GDimGGroup5
 70
     0
 10
0.0
 20
0.0
 30
0.0
  3
GDimGGroup5
  1

  0
HATCH
  5
35C
330
35A
100
AcDbEntity
  8
0
  6
Continuous
 62
     7
100
AcDbHatch
 10
0.0
 20
0.0
 30
0.0
210
0.0
220
0.0
230
1.0
  2
SOLID
 70
     1
 71
     0
 91
        1
 92
        1
 93
        3
 72
     1
 10
1092.815582659493
 20
-2687.435825277651
 11
1092.815582659493
 21
-2676.102491328403
 72
     1
 10
1092.815582659493
 20
-2676.102491328403
 11
1058.815580811749
 21
-2681.769158303027
 72
     1
 10
1058.815580811749
 20
-2681.769158303027
 11
1092.815582659493
 21
-2687.435825277651
 97
        0
 75
     0
 76
     1
 98
        0
  0
HATCH
  5
35D
330
35A
100
AcDbEntity
  8
0
  6
Continuous
 62
     7
100
AcDbHatch
 10
0.0
 20
0.0
 30
0.0
210
0.0
220
0.0
230
1.0
  2
SOLID
 70
     1
 71
     0
 91
        1
 92
        1
 93
        3
 72
     1
 10
1319.815573301563
 20
-2687.76915804474
 11
1355.815571751843
 21
-2681.769158303027
 72
     1
 10
1355.815571751843
 20
-2681.769158303027
 11
1319.815573301563
 21
-2675.769158561314
 72
     1
 10
1319.815573301563
 20
-2675.769158561314
 11
1319.815573301563
 21
-2687.76915804474
 97
        0
 75
     0
 76
     1
 98
        0
  0
LINE
  5
35E
330
35A
100
AcDbEntity
  8
0
  6
Continuous
 62
     7
100
AcDbLine
 10
1058.8155808117
 20
-2616.488650053
 30
0.0
 11
1058.8155808117
 21
-2698.7691592269
 31
0.0
  0
LINE
  5
35F
330
35A
100
AcDbEntity
  8
0
  6
Continuous
 62
     7
100
AcDbLine
 10
1355.8155808117
 20
-2616.488650053
 30
0.0
 11
1355.8155808117
 21
-2698.7691592269
 31
0.0
  0
LINE
  5
360
330
35A
100
AcDbEntity
  8
0
  6
Continuous
 62
     7
100
AcDbLine
 10
1058.8155808117
 20
-2681.769158303
 30
0.0
 11
1355.8155717518
 21
-2681.769158303
 31
0.0
  0
TEXT
  5
361
330
35A
100
AcDbEntity
  8
0
  6
Continuous
 62
     7
100
AcDbText
 10
1167.4025328035
 20
-2673.269158303
 30
0.0
 40
34.0
  1
297
  7
SEACAD_arial_ttf
 11
1167.4025328035
 21
-2639.269158303
 31
0.0
100
AcDbText
 73
     3
  0
ENDBLK
  5
363
330
35A
100
AcDbEntity
  8
0
100
AcDbBlockEnd
  0
BLOCK
  5
36C
330
364
100
AcDbEntity
  8
0
100
AcDbBlockBegin
  2
GDimGGroup6
 70
     0
 10
0.0
 20
0.0
 30
0.0
  3
GDimGGroup6
  1

  0
HATCH
  5
366
330
364
100
AcDbEntity
  8
0
  6
Continuous
 62
     7
100
AcDbHatch
 10
0.0
 20
0.0
 30
0.0
210
0.0
220
0.0
230
1.0
  2
SOLID
 70
     1
 71
     0
 91
        1
 92
        1
 93
        3
 72
     1
 10
814.1619108622
 20
-1892.528974106102
 11
808.495243887576
 21
-1858.528972258358
 72
     1
 10
808.495243887576
 20
-1858.528972258358
 11
802.8285769129519
 21
-1892.528974106102
 72
     1
 10
802.8285769129519
 20
-1892.528974106102
 11
814.1619108622
 21
-1892.528974106102
 97
        0
 75
     0
 76
     1
 98
        0
  0
HATCH
  5
367
330
364
100
AcDbEntity
  8
0
  6
Continuous
 62
     7
100
AcDbHatch
 10
0.0
 20
0.0
 30
0.0
210
0.0
220
0.0
230
1.0
  2
SOLID
 70
     1
 71
     0
 91
        1
 92
        1
 93
        3
 72
     1
 10
814.4952436292891
 20
-2542.529002418309
 11
802.4952441458628
 21
-2542.529002418309
 72
     1
 10
802.4952441458628
 20
-2542.529002418309
 11
808.495243887576
 21
-2578.529000868588
 72
     1
 10
808.495243887576
 20
-2578.529000868588
 11
814.4952436292891
 21
-2542.529002418309
 97
        0
 75
     0
 76
     1
 98
        0
  0
LINE
  5
368
330
364
100
AcDbEntity
  8
0
  6
Continuous
 62
     7
100
AcDbLine
 10
385.5835216745
 20
-1858.5289722584
 30
0.0
 11
825.4952448114
 21
-1858.5289722584
 31
0.0
  0
LINE
  5
369
330
364
100
AcDbEntity
  8
0
  6
Continuous
 62
     7
100
AcDbLine
 10
495.5835216745
 20
-2578.5289722584
 30
0.0
 11
825.4952448114
 21
-2578.5289722584
 31
0.0
  0
LINE
  5
36A
330
364
100
AcDbEntity
  8
0
  6
Continuous
 62
     7
100
AcDbLine
 10
808.4952438876
 20
-1858.5289722584
 30
0.0
 11
808.4952438876
 21
-2578.5290008686
 31
0.0
  0
TEXT
  5
36B
330
364
100
AcDbEntity
  8
0
  6
Continuous
 62
     7
100
AcDbText
 10
799.9952438876
 20
-2258.4420300417
 30
0.0
 40
34.0
  1
720
 50
90.0
  7
SEACAD_arial_ttf
 11
765.9952438876
 21
-2258.4420300417
 31
0.0
100
AcDbText
 73
     3
  0
ENDBLK
  5
36D
330
364
100
AcDbEntity
  8
0
100
AcDbBlockEnd
  0
BLOCK
  5
376
330
36E
100
AcDbEntity
  8
0
100
AcDbBlockBegin
  2
GDimGGroup7
 70
     0
 10
0.0
 20
0.0
 30
0.0
  3
GDimGGroup7
  1

  0
HATCH
  5
370
330
36E
100
AcDbEntity
  8
0
  6
Continuous
 62
     7
100
AcDbHatch
 10
0.0
 20
0.0
 30
0.0
210
0.0
220
0.0
230
1.0
  2
SOLID
 70
     1
 71
     0
 91
        1
 92
        1
 93
        3
 72
     1
 10
1067.315582659493
 20
-2787.461263049925
 11
1067.315582659493
 21
-2776.127929100677
 72
     1
 10
1067.315582659493
 20
-2776.127929100677
 11
1033.315580811749
 21
-2781.794596075301
 72
     1
 10
1033.315580811749
 20
-2781.794596075301
 11
1067.315582659493
 21
-2787.461263049925
 97
        0
 75
     0
 76
     1
 98
        0
  0
HATCH
  5
371
330
36E
100
AcDbEntity
  8
0
  6
Continuous
 62
     7
100
AcDbHatch
 10
0.0
 20
0.0
 30
0.0
210
0.0
220
0.0
230
1.0
  2
SOLID
 70
     1
 71
     0
 91
        1
 92
        1
 93
        3
 72
     1
 10
1347.315576401005
 20
-2787.794595817014
 11
1383.315574851284
 21
-2781.794596075301
 72
     1
 10
1383.315574851284
 20
-2781.794596075301
 11
1347.315576401005
 21
-2775.794596333588
 72
     1
 10
1347.315576401005
 20
-2775.794596333588
 11
1347.315576401005
 21
-2787.794595817014
 97
        0
 75
     0
 76
     1
 98
        0
  0
LINE
  5
372
330
36E
100
AcDbEntity
  8
0
  6
Continuous
 62
     7
100
AcDbLine
 10
1033.3155808117
 20
-2616.488650053
 30
0.0
 11
1033.3155808117
 21
-2798.7945969992
 31
0.0
  0
LINE
  5
373
330
36E
100
AcDbEntity
  8
0
  6
Continuous
 62
     7
100
AcDbLine
 10
1383.3155808117
 20
-2616.488650053
 30
0.0
 11
1383.3155808117
 21
-2798.7945969992
 31
0.0
  0
LINE
  5
374
330
36E
100
AcDbEntity
  8
0
  6
Continuous
 62
     7
100
AcDbLine
 10
1033.3155808117
 20
-2781.7945960753
 30
0.0
 11
1383.3155748513
 21
-2781.7945960753
 31
0.0
  0
TEXT
  5
375
330
36E
100
AcDbEntity
  8
0
  6
Continuous
 62
     7
100
AcDbText
 10
1168.4025343533
 20
-2773.2945960753
 30
0.0
 40
34.0
  1
350
  7
SEACAD_arial_ttf
 11
1168.4025343533
 21
-2739.2945960753
 31
0.0
100
AcDbText
 73
     3
  0
ENDBLK
  5
377
330
36E
100
AcDbEntity
  8
0
100
AcDbBlockEnd
  0
BLOCK
  5
380
330
378
100
AcDbEntity
  8
0
100
AcDbBlockBegin
  2
GDimGGroup8
 70
     0
 10
0.0
 20
0.0
 30
0.0
  3
GDimGGroup8
  1

  0
HATCH
  5
37A
330
378
100
AcDbEntity
  8
0
  6
Continuous
 62
     7
100
AcDbHatch
 10
0.0
 20
0.0
 30
0.0
210
0.0
220
0.0
230
1.0
  2
SOLID
 70
     1
 71
     0
 91
        1
 92
        1
 93
        3
 72
     1
 10
1017.315582659492
 20
-2894.049920786704
 11
1017.315582659492
 21
-2882.716586837456
 72
     1
 10
1017.315582659492
 20
-2882.716586837456
 11
983.3155808117484
 21
-2888.38325381208
 72
     1
 10
983.3155808117484
 20
-2888.38325381208
 11
1017.315582659492
 21
-2894.049920786704
 97
        0
 75
     0
 76
     1
 98
        0
  0
HATCH
  5
37B
330
378
100
AcDbEntity
  8
0
  6
Continuous
 62
     7
100
AcDbHatch
 10
0.0
 20
0.0
 30
0.0
210
0.0
220
0.0
230
1.0
  2
SOLID
 70
     1
 71
     0
 91
        1
 92
        1
 93
        3
 72
     1
 10
1397.31557044054
 20
-2894.383253553793
 11
1433.315568890819
 21
-2888.38325381208
 72
     1
 10
1433.315568890819
 20
-2888.38325381208
 11
1397.31557044054
 21
-2882.383254070367
 72
     1
 10
1397.31557044054
 20
-2882.383254070367
 11
1397.31557044054
 21
-2894.383253553793
 97
        0
 75
     0
 76
     1
 98
        0
  0
LINE
  5
37C
330
378
100
AcDbEntity
  8
0
  6
Continuous
 62
     7
100
AcDbLine
 10
983.3155808117
 20
-2015.488650053
 30
0.0
 11
983.3155808117
 21
-2905.383254736
 31
0.0
  0
LINE
  5
37D
330
378
100
AcDbEntity
  8
0
  6
Continuous
 62
     7
100
AcDbLine
 10
1433.3155808117
 20
-2015.488650053
 30
0.0
 11
1433.3155808117
 21
-2905.383254736
 31
0.0
  0
LINE
  5
37E
330
378
100
AcDbEntity
  8
0
  6
Continuous
 62
     7
100
AcDbLine
 10
983.3155808117
 20
-2888.3832538121
 30
0.0
 11
1433.3155688908
 21
-2888.3832538121
 31
0.0
  0
TEXT
  5
37F
330
378
100
AcDbEntity
  8
0
  6
Continuous
 62
     7
100
AcDbText
 10
1168.402531373
 20
-2879.8832538121
 30
0.0
 40
34.0
  1
450
  7
SEACAD_arial_ttf
 11
1168.402531373
 21
-2845.8832538121
 31
0.0
100
AcDbText
 73
     3
  0
ENDBLK
  5
381
330
378
100
AcDbEntity
  8
0
100
AcDbBlockEnd
  0
BLOCK
  5
38A
330
382
100
AcDbEntity
  8
0
100
AcDbBlockBegin
  2
GDimGGroup9
 70
     0
 10
0.0
 20
0.0
 30
0.0
  3
GDimGGroup9
  1

  0
HATCH
  5
384
330
382
100
AcDbEntity
  8
0
  6
Continuous
 62
     7
100
AcDbHatch
 10
0.0
 20
0.0
 30
0.0
210
0.0
220
0.0
230
1.0
  2
SOLID
 70
     1
 71
     0
 91
        1
 92
        1
 93
        3
 72
     1
 10
1564.459182219356
 20
-2565.488647281413
 11
1553.125848270108
 21
-2565.488647281413
 72
     1
 10
1553.125848270108
 20
-2565.488647281413
 11
1558.792515244732
 21
-2599.488649129157
 72
     1
 10
1558.792515244732
 20
-2599.488649129157
 11
1564.459182219356
 21
-2565.488647281413
 97
        0
 75
     0
 76
     1
 98
        0
  0
HATCH
  5
385
330
382
100
AcDbEntity
  8
0
  6
Continuous
 62
     7
100
AcDbHatch
 10
0.0
 20
0.0
 30
0.0
210
0.0
220
0.0
230
1.0
  2
SOLID
 70
     1
 71
     0
 91
        1
 92
        1
 93
        3
 72
     1
 10
1564.792514986445
 20
-1875.488657116179
 11
1558.792515244732
 21
-1839.4886586659
 72
     1
 10
1558.792515244732
 20
-1839.4886586659
 11
1552.792515503019
 21
-1875.488657116179
 72
     1
 10
1552.792515503019
 20
-1875.488657116179
 11
1564.792514986445
 21
-1875.488657116179
 97
        0
 75
     0
 76
     1
 98
        0
  0
LINE
  5
386
330
382
100
AcDbEntity
  8
0
  6
Continuous
 62
     7
100
AcDbLine
 10
1402.3155817356
 20
-2599.4886491292
 30
0.0
 11
1575.7925161686
 21
-2599.4886491292
 31
0.0
  0
LINE
  5
387
330
382
100
AcDbEntity
  8
0
  6
Continuous
 62
     7
100
AcDbLine
 10
1330.8155817356
 20
-1839.4886491292
 30
0.0
 11
1575.7925161686
 21
-1839.4886491292
 31
0.0
  0
LINE
  5
388
330
382
100
AcDbEntity
  8
0
  6
Continuous
 62
     7
100
AcDbLine
 10
1558.7925152447
 20
-2599.4886491292
 30
0.0
 11
1558.7925152447
 21
-1839.4886586659
 31
0.0
  0
TEXT
  5
389
330
382
100
AcDbEntity
  8
0
  6
Continuous
 62
     7
100
AcDbText
 10
1550.2925152447
 20
-2259.4016973758
 30
0.0
 40
34.0
  1
760
 50
90.0
  7
SEACAD_arial_ttf
 11
1516.2925152447
 21
-2259.4016973758
 31
0.0
100
AcDbText
 73
     3
  0
ENDBLK
  5
38B
330
382
100
AcDbEntity
  8
0
100
AcDbBlockEnd
  0
BLOCK
  5
395
330
38C
100
AcDbEntity
  8
0
100
AcDbBlockBegin
  2
GDimGGroup10
 70
     0
 10
0.0
 20
0.0
 30
0.0
  3
GDimGGroup10
  1

  0
HATCH
  5
38E
330
38C
100
AcDbEntity
  8
0
  6
Continuous
 62
     7
100
AcDbHatch
 10
0.0
 20
0.0
 30
0.0
210
0.0
220
0.0
230
1.0
  2
SOLID
 70
     1
 71
     0
 91
        1
 92
        1
 93
        3
 72
     1
 10
1061.815578964005
 20
-1772.837371358559
 11
1061.815578964005
 21
-1784.170705307807
 72
     1
 10
1061.815578964005
 20
-1784.170705307807
 11
1095.815580811749
 21
-1778.504038333183
 72
     1
 10
1095.815580811749
 20
-1778.504038333183
 11
1061.815578964005
 21
-1772.837371358559
 97
        0
 75
     0
 76
     1
 98
        0
  0
HATCH
  5
38F
330
38C
100
AcDbEntity
  8
0
  6
Continuous
 62
     7
100
AcDbHatch
 10
0.0
 20
0.0
 30
0.0
210
0.0
220
0.0
230
1.0
  2
SOLID
 70
     1
 71
     0
 91
        1
 92
        1
 93
        3
 72
     1
 10
1356.815579262027
 20
-1772.504038591469
 11
1320.815580811748
 21
-1778.504038333183
 72
     1
 10
1320.815580811748
 20
-1778.504038333183
 11
1356.815579262027
 21
-1784.504038074896
 72
     1
 10
1356.815579262027
 20
-1784.504038074896
 11
1356.815579262027
 21
-1772.504038591469
 97
        0
 75
     0
 76
     1
 98
        0
  0
LINE
  5
390
330
38C
100
AcDbEntity
  8
0
  6
Continuous
 62
     7
100
AcDbLine
 10
1095.8155808117
 20
-1829.4886482053
 30
0.0
 11
1095.8155808117
 21
-1761.5040374093
 31
0.0
  0
LINE
  5
391
330
38C
100
AcDbEntity
  8
0
  6
Continuous
 62
     7
100
AcDbLine
 10
1320.8155808117
 20
-1829.4886482053
 30
0.0
 11
1320.8155808117
 21
-1761.5040374093
 31
0.0
  0
LINE
  5
392
330
38C
100
AcDbEntity
  8
0
  6
Continuous
 62
     7
100
AcDbLine
 10
1023.8155839112
 20
-1778.5040383332
 30
0.0
 11
1095.8155808117
 21
-1778.5040383332
 31
0.0
  0
LINE
  5
393
330
38C
100
AcDbEntity
  8
0
  6
Continuous
 62
     7
100
AcDbLine
 10
1320.8155808117
 20
-1778.5040383332
 30
0.0
 11
1392.8155777123
 21
-1778.5040383332
 31
0.0
  0
TEXT
  5
394
330
38C
100
AcDbEntity
  8
0
  6
Continuous
 62
     7
100
AcDbText
 10
1168.4025343533
 20
-1770.0040383332
 30
0.0
 40
34.0
  1
225
  7
SEACAD_arial_ttf
 11
1168.4025343533
 21
-1736.0040383332
 31
0.0
100
AcDbText
 73
     3
  0
ENDBLK
  5
396
330
38C
100
AcDbEntity
  8
0
100
AcDbBlockEnd
  0
BLOCK
  5
3A0
330
397
100
AcDbEntity
  8
0
100
AcDbBlockBegin
  2
GDimGGroup11
 70
     0
 10
0.0
 20
0.0
 30
0.0
  3
GDimGGroup11
  1

  0
HATCH
  5
399
330
397
100
AcDbEntity
  8
0
  6
Continuous
 62
     7
100
AcDbHatch
 10
0.0
 20
0.0
 30
0.0
210
0.0
220
0.0
230
1.0
  2
SOLID
 70
     1
 71
     0
 91
        1
 92
        1
 93
        3
 72
     1
 10
1899.674247623164
 20
-2633.488650976901
 11
1911.007581572411
 21
-2633.488650976901
 72
     1
 10
1911.007581572411
 20
-2633.488650976901
 11
1905.340914597788
 21
-2599.488649129157
 72
     1
 10
1905.340914597788
 20
-2599.488649129157
 11
1899.674247623164
 21
-2633.488650976901
 97
        0
 75
     0
 76
     1
 98
        0
  0
HATCH
  5
39A
330
397
100
AcDbEntity
  8
0
  6
Continuous
 62
     7
100
AcDbHatch
 10
0.0
 20
0.0
 30
0.0
210
0.0
220
0.0
230
1.0
  2
SOLID
 70
     1
 71
     0
 91
        1
 92
        1
 93
        3
 72
     1
 10
1899.340914856074
 20
-2473.488650678878
 11
1905.340914597788
 21
-2509.488649129157
 72
     1
 10
1905.340914597788
 20
-2509.488649129157
 11
1911.340914339501
 21
-2473.488650678878
 72
     1
 10
1911.340914339501
 20
-2473.488650678878
 11
1899.340914856074
 21
-2473.488650678878
 97
        0
 75
     0
 76
     1
 98
        0
  0
LINE
  5
39B
330
397
100
AcDbEntity
  8
0
  6
Continuous
 62
     7
100
AcDbLine
 10
2049.7524076906
 20
-2599.4886491292
 30
0.0
 11
1888.3409136739
 21
-2599.4886491292
 31
0.0
  0
LINE
  5
39C
330
397
100
AcDbEntity
  8
0
  6
Continuous
 62
     7
100
AcDbLine
 10
2032.4399076906
 20
-2509.4886491292
 30
0.0
 11
1888.3409136739
 21
-2509.4886491292
 31
0.0
  0
LINE
  5
39D
330
397
100
AcDbEntity
  8
0
  6
Continuous
 62
     7
100
AcDbLine
 10
1905.3409145978
 20
-2671.4886460297
 30
0.0
 11
1905.3409145978
 21
-2599.4886491292
 31
0.0
  0
LINE
  5
39E
330
397
100
AcDbEntity
  8
0
  6
Continuous
 62
     7
100
AcDbLine
 10
1905.3409145978
 20
-2509.4886491292
 30
0.0
 11
1905.3409145978
 21
-2437.4886522286
 31
0.0
  0
TEXT
  5
39F
330
397
100
AcDbEntity
  8
0
  6
Continuous
 62
     7
100
AcDbText
 10
1896.8409145978
 20
-2581.0973429932
 30
0.0
 40
34.0
  1
90
 50
90.0
  7
SEACAD_arial_ttf
 11
1862.8409145978
 21
-2581.0973429932
 31
0.0
100
AcDbText
 73
     3
  0
ENDBLK
  5
3A1
330
397
100
AcDbEntity
  8
0
100
AcDbBlockEnd
  0
BLOCK
  5
3AB
330
3A2
100
AcDbEntity
  8
0
100
AcDbBlockBegin
  2
GDimGGroup12
 70
     0
 10
0.0
 20
0.0
 30
0.0
  3
GDimGGroup12
  1

  0
HATCH
  5
3A4
330
3A2
100
AcDbEntity
  8
0
  6
Continuous
 62
     7
100
AcDbHatch
 10
0.0
 20
0.0
 30
0.0
210
0.0
220
0.0
230
1.0
  2
SOLID
 70
     1
 71
     0
 91
        1
 92
        1
 93
        3
 72
     1
 10
2002.752406766691
 20
-2748.03781341442
 11
2036.752408614435
 21
-2742.371146439796
 72
     1
 10
2036.752408614435
 20
-2742.371146439796
 11
2002.752406766691
 21
-2736.704479465172
 72
     1
 10
2002.752406766691
 20
-2736.704479465172
 11
2002.752406766691
 21
-2748.03781341442
 97
        0
 75
     0
 76
     1
 98
        0
  0
HATCH
  5
3A5
330
3A2
100
AcDbEntity
  8
0
  6
Continuous
 62
     7
100
AcDbHatch
 10
0.0
 20
0.0
 30
0.0
210
0.0
220
0.0
230
1.0
  2
SOLID
 70
     1
 71
     0
 91
        1
 92
        1
 93
        3
 72
     1
 10
2132.752407064714
 20
-2748.371146181509
 11
2132.752407064714
 21
-2736.371146698083
 72
     1
 10
2132.752407064714
 20
-2736.371146698083
 11
2096.752408614435
 21
-2742.371146439796
 72
     1
 10
2096.752408614435
 20
-2742.371146439796
 11
2132.752407064714
 21
-2748.371146181509
 97
        0
 75
     0
 76
     1
 98
        0
  0
LINE
  5
3A6
330
3A2
100
AcDbEntity
  8
0
  6
Continuous
 62
     7
100
AcDbLine
 10
2036.7524086144
 20
-2586.488650053
 30
0.0
 11
2036.7524086144
 21
-2759.3711473637
 31
0.0
  0
LINE
  5
3A7
330
3A2
100
AcDbEntity
  8
0
  6
Continuous
 62
     7
100
AcDbLine
 10
2096.7524086144
 20
-2586.488650053
 30
0.0
 11
2096.7524086144
 21
-2759.3711473637
 31
0.0
  0
LINE
  5
3A8
330
3A2
100
AcDbEntity
  8
0
  6
Continuous
 62
     7
100
AcDbLine
 10
1845.0207321551
 20
-2742.3711464398
 30
0.0
 11
2036.7524086144
 21
-2742.3711464398
 31
0.0
  0
LINE
  5
3A9
330
3A2
100
AcDbEntity
  8
0
  6
Continuous
 62
     7
100
AcDbLine
 10
2096.7524086144
 20
-2742.3711464398
 30
0.0
 11
2168.752405515
 21
-2742.3711464398
 31
0.0
  0
TEXT
  5
3AA
330
3A2
100
AcDbEntity
  8
0
  6
Continuous
 62
     7
100
AcDbText
 10
1856.9207300887
 20
-2733.8711464398
 30
0.0
 40
34.0
  1
60
  7
SEACAD_arial_ttf
 11
1856.9207300887
 21
-2699.8711464398
 31
0.0
100
AcDbText
 73
     3
  0
ENDBLK
  5
3AC
330
3A2
100
AcDbEntity
  8
0
100
AcDbBlockEnd
  0
BLOCK
  5
3B9
330
3AD
100
AcDbEntity
  8
0
100
AcDbBlockBegin
  2
GDimGGroup13
 70
     0
 10
0.0
 20
0.0
 30
0.0
  3
GDimGGroup13
  1

  0
HATCH
  5
3AF
330
3AD
100
AcDbEntity
  8
0
  6
Continuous
 62
     7
100
AcDbHatch
 10
0.0
 20
0.0
 30
0.0
210
0.0
220
0.0
230
1.0
  2
SOLID
 70
     1
 71
     0
 91
        1
 92
        1
 93
        3
 72
     1
 10
1945.43990676669
 20
-2349.965867508734
 11
1979.439908614434
 21
-2344.29920053411
 72
     1
 10
1979.439908614434
 20
-2344.29920053411
 11
1945.43990676669
 21
-2338.632533559486
 72
     1
 10
1945.43990676669
 20
-2338.632533559486
 11
1945.43990676669
 21
-2349.965867508734
 97
        0
 75
     0
 76
     1
 98
        0
  0
HATCH
  5
3B0
330
3AD
100
AcDbEntity
  8
0
  6
Continuous
 62
     7
100
AcDbHatch
 10
0.0
 20
0.0
 30
0.0
210
0.0
220
0.0
230
1.0
  2
SOLID
 70
     1
 71
     0
 91
        1
 92
        1
 93
        3
 72
     1
 10
2465.439907064713
 20
-2350.299200275823
 11
2465.439907064713
 21
-2338.299200792397
 72
     1
 10
2465.439907064713
 20
-2338.299200792397
 11
2429.439908614434
 21
-2344.29920053411
 72
     1
 10
2429.439908614434
 20
-2344.29920053411
 11
2465.439907064713
 21
-2350.299200275823
 97
        0
 75
     0
 76
     1
 98
        0
  0
LINE
  5
3B1
330
3AD
100
AcDbEntity
  8
0
  6
Continuous
 62
     7
100
AcDbLine
 10
1979.4399086144
 20
-2241.488650053
 30
0.0
 11
1979.4399086144
 21
-2361.299201458
 31
0.0
  0
LINE
  5
3B2
330
3AD
100
AcDbEntity
  8
0
  6
Continuous
 62
     7
100
AcDbLine
 10
2429.4399086144
 20
-2241.488650053
 30
0.0
 11
2429.4399086144
 21
-2361.299201458
 31
0.0
  0
LINE
  5
3B3
330
3AD
100
AcDbEntity
  8
0
  6
Continuous
 62
     7
100
AcDbLine
 10
1907.4399117139
 20
-2344.2992005341
 30
0.0
 11
1979.4399086144
 21
-2344.2992005341
 31
0.0
  0
LINE
  5
3B4
330
3AD
100
AcDbEntity
  8
0
  6
Continuous
 62
     7
100
AcDbLine
 10
2429.4399086144
 20
-2344.2992005341
 30
0.0
 11
2501.439905515
 21
-2344.2992005341
 31
0.0
  0
TEXT
  5
3B5
330
3AD
100
AcDbEntity
  8
0
  6
Continuous
 62
     7
100
AcDbText
 10
2234.2476066967
 20
-2335.7992005341
 30
0.0
 40
34.0
  1
450
  7
SEACAD_arial_ttf
 11
2234.2476066967
 21
-2301.7992005341
 31
0.0
100
AcDbText
 73
     3
  0
TEXT
  5
3B7
330
3AD
100
AcDbEntity
  8
0
  6
Continuous
 62
     7
100
AcDbText
 10
2094.8061116547
 20
-2335.7992005341
 30
0.0
 40
34.0
  1
O
  7
SEACAD_Solid_Edge_ANSI1_Symbols
 11
2094.8061116547
 21
-2301.7992005341
 31
0.0
100
AcDbText
 73
     3
  0
TEXT
  5
3B8
330
3AD
100
AcDbEntity
  8
0
  6
Continuous
 62
     7
100
AcDbText
 10
2133.5780414793
 20
-2335.7992005341
 30
0.0
 40
34.0
  1
 int 
  7
SEACAD_arial_ttf
 11
2133.5780414793
 21
-2301.7992005341
 31
0.0
100
AcDbText
 73
     3
  0
ENDBLK
  5
3BA
330
3AD
100
AcDbEntity
  8
0
100
AcDbBlockEnd
  0
BLOCK
  5
3C3
330
3BB
100
AcDbEntity
  8
0
100
AcDbBlockBegin
  2
GDimGGroup14
 70
     0
 10
0.0
 20
0.0
 30
0.0
  3
GDimGGroup14
  1

  0
HATCH
  5
3BD
330
3BB
100
AcDbEntity
  8
0
  6
Continuous
 62
     7
100
AcDbHatch
 10
0.0
 20
0.0
 30
0.0
210
0.0
220
0.0
230
1.0
  2
SOLID
 70
     1
 71
     0
 91
        1
 92
        1
 93
        3
 72
     1
 10
1998.439910462178
 20
-1564.77203036277
 11
1964.439908614434
 21
-1570.438697337394
 72
     1
 10
1964.439908614434
 20
-1570.438697337394
 11
1998.439910462178
 21
-1576.105364312018
 72
     1
 10
1998.439910462178
 20
-1576.105364312018
 11
1998.439910462178
 21
-1564.77203036277
 97
        0
 75
     0
 76
     1
 98
        0
  0
HATCH
  5
3BE
330
3BB
100
AcDbEntity
  8
0
  6
Continuous
 62
     7
100
AcDbHatch
 10
0.0
 20
0.0
 30
0.0
210
0.0
220
0.0
230
1.0
  2
SOLID
 70
     1
 71
     0
 91
        1
 92
        1
 93
        3
 72
     1
 10
2700.254018059052
 20
-1564.438697595681
 11
2700.254018059052
 21
-1576.438697079107
 72
     1
 10
2700.254018059052
 20
-1576.438697079107
 11
2736.254016509331
 21
-1570.438697337394
 72
     1
 10
2736.254016509331
 20
-1570.438697337394
 11
2700.254018059052
 21
-1564.438697595681
 97
        0
 75
     0
 76
     1
 98
        0
  0
LINE
  5
3BF
330
3BB
100
AcDbEntity
  8
0
  6
Continuous
 62
     7
100
AcDbLine
 10
1964.4399086144
 20
-1981.4886482053
 30
0.0
 11
1964.4399086144
 21
-1553.4386964135
 31
0.0
  0
LINE
  5
3C0
330
3BB
100
AcDbEntity
  8
0
  6
Continuous
 62
     7
100
AcDbLine
 10
2736.2540461461
 20
-1830.5696108139
 30
0.0
 11
2736.2540461461
 21
-1553.4386964135
 31
0.0
  0
LINE
  5
3C1
330
3BB
100
AcDbEntity
  8
0
  6
Continuous
 62
     7
100
AcDbLine
 10
1964.4399086144
 20
-1570.4386973374
 30
0.0
 11
2736.2540165093
 21
-1570.4386973374
 31
0.0
  0
TEXT
  5
3C2
330
3BB
100
AcDbEntity
  8
0
  6
Continuous
 62
     7
100
AcDbText
 10
2310.4339190836
 20
-1561.9386973374
 30
0.0
 40
34.0
  1
772
  7
SEACAD_arial_ttf
 11
2310.4339190836
 21
-1527.9386973374
 31
0.0
100
AcDbText
 73
     3
  0
ENDBLK
  5
3C4
330
3BB
100
AcDbEntity
  8
0
100
AcDbBlockEnd
  0
BLOCK
  5
3CD
330
3C5
100
AcDbEntity
  8
0
100
AcDbBlockBegin
  2
GDimGGroup15
 70
     0
 10
0.0
 20
0.0
 30
0.0
  3
GDimGGroup15
  1

  0
HATCH
  5
3C7
330
3C5
100
AcDbEntity
  8
0
  6
Continuous
 62
     7
100
AcDbHatch
 10
0.0
 20
0.0
 30
0.0
210
0.0
220
0.0
230
1.0
  2
SOLID
 70
     1
 71
     0
 91
        1
 92
        1
 93
        3
 72
     1
 10
2912.882592214014
 20
-1643.07704897648
 11
2907.215925239389
 21
-1609.077047128736
 72
     1
 10
2907.215925239389
 20
-1609.077047128736
 11
2901.549258264765
 21
-1643.07704897648
 72
     1
 10
2901.549258264765
 20
-1643.07704897648
 11
2912.882592214014
 21
-1643.07704897648
 97
        0
 75
     0
 76
     1
 98
        0
  0
HATCH
  5
3C8
330
3C5
100
AcDbEntity
  8
0
  6
Continuous
 62
     7
100
AcDbHatch
 10
0.0
 20
0.0
 30
0.0
210
0.0
220
0.0
230
1.0
  2
SOLID
 70
     1
 71
     0
 91
        1
 92
        1
 93
        3
 72
     1
 10
2913.215924981102
 20
-2563.488628287374
 11
2901.215925497676
 21
-2563.488628287374
 72
     1
 10
2901.215925497676
 20
-2563.488628287374
 11
2907.215925239389
 21
-2599.488626737653
 72
     1
 10
2907.215925239389
 20
-2599.488626737653
 11
2913.215924981102
 21
-2563.488628287374
 97
        0
 75
     0
 76
     1
 98
        0
  0
LINE
  5
3C9
330
3C5
100
AcDbEntity
  8
0
  6
Continuous
 62
     7
100
AcDbLine
 10
2816.4994254041
 20
-1609.0770471287
 30
0.0
 11
2924.2159261633
 21
-1609.0770471287
 31
0.0
  0
LINE
  5
3CA
330
3C5
100
AcDbEntity
  8
0
  6
Continuous
 62
     7
100
AcDbLine
 10
2760.0024095383
 20
-2599.4886491292
 30
0.0
 11
2924.2159261633
 21
-2599.4886491292
 31
0.0
  0
LINE
  5
3CB
330
3C5
100
AcDbEntity
  8
0
  6
Continuous
 62
     7
100
AcDbLine
 10
2907.2159252394
 20
-1609.0770471287
 30
0.0
 11
2907.2159252394
 21
-2599.4886267377
 31
0.0
  0
TEXT
  5
3CC
330
3C5
100
AcDbEntity
  8
0
  6
Continuous
 62
     7
100
AcDbText
 10
2898.7159252394
 20
-2144.1958804115
 30
0.0
 40
34.0
  1
990
 50
90.0
  7
SEACAD_arial_ttf
 11
2864.7159252394
 21
-2144.1958804115
 31
0.0
100
AcDbText
 73
     3
  0
ENDBLK
  5
3CE
330
3C5
100
AcDbEntity
  8
0
100
AcDbBlockEnd
  0
BLOCK
  5
3D4
330
3CF
100
AcDbEntity
  8
0
100
AcDbBlockBegin
  2
SE10
 70
     0
 10
0.0
 20
0.0
 30
0.0
  3
SE10
  1

  0
LINE
  5
3D1
330
3CF
100
AcDbEntity
  8
0
  6
Continuous
 62
     7
100
AcDbLine
 10
4028.0546859818
 20
-2489.5911920781
 30
0.0
 11
4011.4223173783
 21
-2489.5911920781
 31
0.0
  0
ARC
  5
3D2
330
3CF
100
AcDbEntity
  8
0
  6
Continuous
 62
     7
100
AcDbCircle
 10
4011.4223173783
 20
-2539.7881733238
 30
0.0
 40
50.19698124577644
100
AcDbArc
 50
90.0
 51
205.9784485946
  0
ARC
  5
3D3
330
3CF
100
AcDbEntity
  8
0
  6
Continuous
 62
     7
100
AcDbCircle
 10
3940.8452791599
 20
-2574.1780387401
 30
0.0
 40
28.3127708046793
100
AcDbArc
 50
272.5073304805
 51
25.9784485946
  0
ENDBLK
  5
3D5
330
3CF
100
AcDbEntity
  8
0
100
AcDbBlockEnd
  0
ENDSEC
  0
SECTION
  2
ENTITIES
  0
LINE
  5
3F
330
1F
100
AcDbEntity
  8
0
  6
Continuous
 62
     7
100
AcDbLine
 10
523.5835207507
 20
-1858.5289722584
 30
0.0
 11
523.5835207507
 21
-2202.9543058284
 31
0.0
  0
LINE
  5
41
330
1F
100
AcDbEntity
  8
0
  6
HIDDEN2
 62
     7
100
AcDbLine
 10
478.5835207507
 20
-2578.5289722584
 30
0.0
 11
258.5835207507
 21
-2578.5289722584
 31
0.0
  0
LINE
  5
42
330
1F
100
AcDbEntity
  8
0
  6
Continuous
 62
     7
100
AcDbLine
 10
213.5835207507
 20
-2202.9543058284
 30
0.0
 11
213.5835207507
 21
-1858.5289722584
 31
0.0
  0
LINE
  5
43
330
1F
100
AcDbEntity
  8
0
  6
Continuous
 62
     7
100
AcDbLine
 10
213.5835207507
 20
-1858.5289722584
 30
0.0
 11
523.5835207507
 21
-1858.5289722584
 31
0.0
  0
LINE
  5
44
330
1F
100
AcDbEntity
  8
0
  6
Continuous
 62
     7
100
AcDbLine
 10
301.0835207507
 20
-2389.5289722584
 30
0.0
 11
436.0835207507
 21
-2389.5289722584
 31
0.0
  0
LINE
  5
45
330
1F
100
AcDbEntity
  8
0
  6
Continuous
 62
     7
100
AcDbLine
 10
256.0835207507
 20
-2179.5295618818
 30
0.0
 11
256.0835207507
 21
-1891.5289722584
 31
0.0
  0
LINE
  5
46
330
1F
100
AcDbEntity
  8
0
  6
Continuous
 62
     7
100
AcDbLine
 10
481.0835207507
 20
-2179.5295618818
 30
0.0
 11
481.0835207507
 21
-1891.5289722584
 31
0.0
  0
LINE
  5
47
330
1F
100
AcDbEntity
  8
0
  6
Continuous
 62
     7
100
AcDbLine
 10
301.0835207507
 20
-2389.5289722584
 30
0.0
 11
256.0835207507
 21
-2344.5289722584
 31
0.0
  0
LINE
  5
48
330
1F
100
AcDbEntity
  8
0
  6
Continuous
 62
     7
100
AcDbLine
 10
436.0835207507
 20
-2389.5289722584
 30
0.0
 11
481.0835207507
 21
-2344.5289722584
 31
0.0
  0
LINE
  5
49
330
1F
100
AcDbEntity
  8
0
  6
HIDDEN2
 62
     7
100
AcDbLine
 10
258.5835207507
 20
-2578.5289722584
 30
0.0
 11
213.5835207507
 21
-2533.5289722584
 31
0.0
  0
LINE
  5
4A
330
1F
100
AcDbEntity
  8
0
  6
HIDDEN2
 62
     7
100
AcDbLine
 10
478.5835207507
 20
-2578.5289722584
 30
0.0
 11
523.5835207507
 21
-2533.5289722584
 31
0.0
  0
LINE
  5
4B
330
1F
100
AcDbEntity
  8
0
  6
Continuous
 62
     7
100
AcDbLine
 10
353.5835207507
 20
-2399.5289722584
 30
0.0
 11
383.5835207507
 21
-2399.5289722584
 31
0.0
  0
LINE
  5
4C
330
1F
100
AcDbEntity
  8
0
  6
Continuous
 62
     7
100
AcDbLine
 10
353.5835207507
 20
-2399.5289722584
 30
0.0
 11
353.5835207507
 21
-2389.5289722584
 31
0.0
  0
LINE
  5
4D
330
1F
100
AcDbEntity
  8
0
  6
Continuous
 62
     7
100
AcDbLine
 10
383.5835207507
 20
-2399.5289722584
 30
0.0
 11
383.5835207507
 21
-2389.5289722584
 31
0.0
  0
ARC
  5
4E
330
1F
100
AcDbEntity
  8
0
  6
Continuous
 62
     7
100
AcDbCircle
 10
368.5835207507
 20
-2423.5289722584
 30
0.0
 40
240.0
100
AcDbArc
 50
117.9531868834
 51
120.4143653546
  0
ARC
  5
4F
330
1F
100
AcDbEntity
  8
0
  6
Continuous
 62
     7
100
AcDbCircle
 10
368.5835207507
 20
-2423.5289722584
 30
0.0
 40
225.0
100
AcDbArc
 50
120.0
 51
122.6836388463
  0
LINE
  5
50
330
1F
100
AcDbEntity
  8
0
  6
Continuous
 62
     7
100
AcDbLine
 10
457.6068613478
 20
-2417.0644842988
 30
0.0
 11
576.755435022
 21
-2536.213057973
 31
0.0
  0
LINE
  5
51
330
1F
100
AcDbEntity
  8
0
  6
Continuous
 62
     7
100
AcDbLine
 10
460.7888418631
 20
-2416.003824127
 30
0.0
 11
578.2941133185
 21
-2533.5090955824
 31
0.0
  0
LINE
  5
52
330
1F
100
AcDbEntity
  8
0
  6
Continuous
 62
     7
100
AcDbLine
 10
368.5835207507
 20
-2417.0644842988
 30
0.0
 11
459.7281816913
 21
-2417.0644842988
 31
0.0
  0
LINE
  5
53
330
1F
100
AcDbEntity
  8
0
  6
Continuous
 62
     7
100
AcDbLine
 10
368.5835207507
 20
-2413.5289503928
 30
0.0
 11
456.1926477854
 21
-2413.5289503928
 31
0.0
  0
LINE
  5
54
330
1F
100
AcDbEntity
  8
0
  6
Continuous
 62
     7
100
AcDbLine
 10
490.0835207507
 20
-2194.5289722584
 30
0.0
 11
490.0835207507
 21
-2379.6380774276
 31
0.0
  0
LINE
  5
55
330
1F
100
AcDbEntity
  8
0
  6
Continuous
 62
     7
100
AcDbLine
 10
495.0835207507
 20
-2194.5289722584
 30
0.0
 11
495.0835207507
 21
-2381.7091452394
 31
0.0
  0
LINE
  5
56
330
1F
100
AcDbEntity
  8
0
  6
Continuous
 62
     7
100
AcDbLine
 10
493.9722571835
 20
-2382.8204088066
 30
0.0
 11
607.3531673989
 21
-2442.2022790256
 31
0.0
  0
LINE
  5
57
330
1F
100
AcDbEntity
  8
0
  6
Continuous
 62
     7
100
AcDbLine
 10
495.0835207507
 20
-2380.0158709193
 30
0.0
 11
607.670884462
 21
-2438.9821308258
 31
0.0
  0
LINE
  5
58
330
1F
100
AcDbEntity
  8
0
  6
Continuous
 62
     7
100
AcDbLine
 10
495.0835207507
 20
-2381.7091452394
 30
0.0
 11
459.7281816913
 21
-2417.0644842988
 31
0.0
  0
LINE
  5
59
330
1F
100
AcDbEntity
  8
0
  6
Continuous
 62
     7
100
AcDbLine
 10
490.0835207507
 20
-2379.6380774276
 30
0.0
 11
456.1926477854
 21
-2413.5289503928
 31
0.0
  0
LINE
  5
5A
330
1F
100
AcDbEntity
  8
0
  6
Continuous
 62
     7
100
AcDbLine
 10
490.0835207507
 20
-2194.5289722584
 30
0.0
 11
481.0835207507
 21
-2194.5289722584
 31
0.0
  0
LINE
  5
5B
330
1F
100
AcDbEntity
  8
0
  6
Continuous
 62
     7
100
AcDbLine
 10
500.0835207507
 20
-2182.5289722584
 30
0.0
 11
481.0835207507
 21
-2182.5289722584
 31
0.0
  0
LINE
  5
5C
330
1F
100
AcDbEntity
  8
0
  6
Continuous
 62
     7
100
AcDbLine
 10
481.0835207507
 20
-2150.5289722584
 30
0.0
 11
481.0835207507
 21
-2162.5289722584
 31
0.0
  0
LINE
  5
5D
330
1F
100
AcDbEntity
  8
0
  6
Continuous
 62
     7
100
AcDbLine
 10
500.0835207507
 20
-2194.5289722584
 30
0.0
 11
500.0835207507
 21
-2182.5289722584
 31
0.0
  0
LINE
  5
5E
330
1F
100
AcDbEntity
  8
0
  6
Continuous
 62
     7
100
AcDbLine
 10
495.0835207507
 20
-2194.5289722584
 30
0.0
 11
500.0835207507
 21
-2194.5289722584
 31
0.0
  0
LINE
  5
5F
330
1F
100
AcDbEntity
  8
0
  6
Continuous
 62
     7
100
AcDbLine
 10
490.0835207507
 20
-2194.5289722584
 30
0.0
 11
495.0835207507
 21
-2194.5289722584
 31
0.0
  0
LINE
  5
60
330
1F
100
AcDbEntity
  8
0
  6
Continuous
 62
     7
100
AcDbLine
 10
490.0835207507
 20
-2182.5289722584
 30
0.0
 11
500.0835207507
 21
-2182.5289722584
 31
0.0
  0
LINE
  5
61
330
1F
100
AcDbEntity
  8
0
  6
Continuous
 62
     7
100
AcDbLine
 10
237.0835207507
 20
-2182.5289722584
 30
0.0
 11
256.0835207507
 21
-2182.5289722584
 31
0.0
  0
LINE
  5
62
330
1F
100
AcDbEntity
  8
0
  6
Continuous
 62
     7
100
AcDbLine
 10
247.0835207507
 20
-2194.5289722584
 30
0.0
 11
256.0835207507
 21
-2194.5289722584
 31
0.0
  0
LINE
  5
63
330
1F
100
AcDbEntity
  8
0
  6
Continuous
 62
     7
100
AcDbLine
 10
256.0835207507
 20
-2150.5289722584
 30
0.0
 11
256.0835207507
 21
-2162.5289722584
 31
0.0
  0
LINE
  5
64
330
1F
100
AcDbEntity
  8
0
  6
Continuous
 62
     7
100
AcDbLine
 10
247.0835207507
 20
-2182.5289722584
 30
0.0
 11
237.0835207507
 21
-2182.5289722584
 31
0.0
  0
LINE
  5
65
330
1F
100
AcDbEntity
  8
0
  6
Continuous
 62
     7
100
AcDbLine
 10
247.0835207507
 20
-2194.5289722584
 30
0.0
 11
242.0835207507
 21
-2194.5289722584
 31
0.0
  0
LINE
  5
66
330
1F
100
AcDbEntity
  8
0
  6
Continuous
 62
     7
100
AcDbLine
 10
242.0835207507
 20
-2194.5289722584
 30
0.0
 11
237.0835207507
 21
-2194.5289722584
 31
0.0
  0
LINE
  5
67
330
1F
100
AcDbEntity
  8
0
  6
Continuous
 62
     7
100
AcDbLine
 10
237.0835207507
 20
-2194.5289722584
 30
0.0
 11
237.0835207507
 21
-2182.5289722584
 31
0.0
  0
LINE
  5
68
330
1F
100
AcDbEntity
  8
0
  6
Continuous
 62
     7
100
AcDbLine
 10
242.0835207507
 20
-2194.5289722584
 30
0.0
 11
242.0835207507
 21
-2381.7091452394
 31
0.0
  0
LINE
  5
69
330
1F
100
AcDbEntity
  8
0
  6
Continuous
 62
     7
100
AcDbLine
 10
247.0835207507
 20
-2194.5289722584
 30
0.0
 11
247.0835207507
 21
-2379.6380774276
 31
0.0
  0
LINE
  5
6A
330
1F
100
AcDbEntity
  8
0
  6
Continuous
 62
     7
100
AcDbLine
 10
242.0835207507
 20
-2380.0158709193
 30
0.0
 11
129.4961570393
 21
-2438.9821308258
 31
0.0
  0
LINE
  5
6B
330
1F
100
AcDbEntity
  8
0
  6
Continuous
 62
     7
100
AcDbLine
 10
243.1947843179
 20
-2382.8204088066
 30
0.0
 11
129.8138741024
 21
-2442.2022790256
 31
0.0
  0
LINE
  5
6C
330
1F
100
AcDbEntity
  8
0
  6
Continuous
 62
     7
100
AcDbLine
 10
276.3781996382
 20
-2416.003824127
 30
0.0
 11
158.8729281828
 21
-2533.5090955824
 31
0.0
  0
LINE
  5
6D
330
1F
100
AcDbEntity
  8
0
  6
Continuous
 62
     7
100
AcDbLine
 10
368.5835207507
 20
-2413.5289503928
 30
0.0
 11
280.9743937159
 21
-2413.5289503928
 31
0.0
  0
LINE
  5
6E
330
1F
100
AcDbEntity
  8
0
  6
Continuous
 62
     7
100
AcDbLine
 10
247.0835207507
 20
-2379.6380774276
 30
0.0
 11
280.9743937159
 21
-2413.5289503928
 31
0.0
  0
LINE
  5
6F
330
1F
100
AcDbEntity
  8
0
  6
Continuous
 62
     7
100
AcDbLine
 10
242.0835207507
 20
-2381.7091452394
 30
0.0
 11
277.43885981
 21
-2417.0644842988
 31
0.0
  0
LINE
  5
70
330
1F
100
AcDbEntity
  8
0
  6
Continuous
 62
     7
100
AcDbLine
 10
368.5835207507
 20
-2417.0644842988
 30
0.0
 11
277.43885981
 21
-2417.0644842988
 31
0.0
  0
LINE
  5
71
330
1F
100
AcDbEntity
  8
0
  6
Continuous
 62
     7
100
AcDbLine
 10
279.5601801536
 20
-2417.0644842988
 30
0.0
 11
160.4116064793
 21
-2536.213057973
 31
0.0
  0
LINE
  5
72
330
1F
100
AcDbEntity
  8
0
  6
Continuous
 62
     7
100
AcDbLine
 10
369.5835207507
 20
-2417.0644842988
 30
0.0
 11
369.5835207507
 21
-2656.0284544883
 31
0.0
  0
LINE
  5
73
330
1F
100
AcDbEntity
  8
0
  6
Continuous
 62
     7
100
AcDbLine
 10
366.0835207507
 20
-2417.0644842988
 30
0.0
 11
366.0835207507
 21
-2656.0206878022
 31
0.0
  0
ELLIPSE
  5
74
330
1F
100
AcDbEntity
  8
0
  6
Continuous
 62
     7
100
AcDbEllipse
 10
368.5835207507
 20
-2417.2789722584
 30
0.0
 11
-240.0813664156384
 21
8.545541942720088E-14
 31
0.0
210
0.0
220
0.0
230
1.0
 40
0.99445452
 41
5.267343562000852
 42
10.44061970594811
  0
ARC
  5
75
330
1F
100
AcDbEntity
  8
0
  6
Continuous
 62
     7
100
AcDbCircle
 10
368.5835207507
 20
-2423.5289722584
 30
0.0
 40
240.0
100
AcDbArc
 50
121.8085984029
 51
58.1914015971
  0
ARC
  5
76
330
1F
100
AcDbEntity
  8
0
  6
Continuous
 62
     7
100
AcDbCircle
 10
368.5835207507
 20
-2423.5289722584
 30
0.0
 40
225.0
100
AcDbArc
 50
124.2096189544
 51
182.0377535229
  0
ARC
  5
77
330
1F
100
AcDbEntity
  8
0
  6
Continuous
 62
     7
100
AcDbCircle
 10
368.5835207507
 20
-2423.5289722584
 30
0.0
 40
240.0
100
AcDbArc
 50
59.5856346455
 51
62.0468131166
  0
ARC
  5
78
330
1F
100
AcDbEntity
  8
0
  6
Continuous
 62
     7
100
AcDbCircle
 10
368.5835207507
 20
-2423.5289722584
 30
0.0
 40
225.0
100
AcDbArc
 50
57.3163611537
 51
60.0
  0
ARC
  5
79
330
1F
100
AcDbEntity
  8
0
  6
Continuous
 62
     7
100
AcDbCircle
 10
368.5835207507
 20
-2423.5289722584
 30
0.0
 40
225.0
100
AcDbArc
 50
182.8819407301
 51
206.734384534
  0
ARC
  5
7A
330
1F
100
AcDbEntity
  8
0
  6
Continuous
 62
     7
100
AcDbCircle
 10
368.5835207507
 20
-2423.5289722584
 30
0.0
 40
225.0
100
AcDbArc
 50
207.5370336097
 51
269.3633671277
  0
ARC
  5
7B
330
1F
100
AcDbEntity
  8
0
  6
Continuous
 62
     7
100
AcDbCircle
 10
368.5835207507
 20
-2423.5289722584
 30
0.0
 40
225.0
100
AcDbArc
 50
270.2546487473
 51
332.4629663903
  0
ARC
  5
7C
330
1F
100
AcDbEntity
  8
0
  6
Continuous
 62
     7
100
AcDbCircle
 10
368.5835207507
 20
-2423.5289722584
 30
0.0
 40
225.0
100
AcDbArc
 50
333.265615466
 51
357.1180592699
  0
ARC
  5
7D
330
1F
100
AcDbEntity
  8
0
  6
Continuous
 62
     7
100
AcDbCircle
 10
368.5835207507
 20
-2423.5289722584
 30
0.0
 40
225.0
100
AcDbArc
 50
357.9622464771
 51
55.7903810456
  0
LINE
  5
7E
330
1F
100
AcDbEntity
  8
0
  6
HIDDEN2
 62
     7
100
AcDbLine
 10
523.5835207507
 20
-2533.5289722584
 30
0.0
 11
523.5835207507
 21
-2202.9543058284
 31
0.0
  0
LINE
  5
7F
330
1F
100
AcDbEntity
  8
0
  6
Continuous
 62
     7
100
AcDbLine
 10
481.0835207507
 20
-2179.5295618818
 30
0.0
 11
481.0835207507
 21
-2344.5289722584
 31
0.0
  0
LINE
  5
80
330
1F
100
AcDbEntity
  8
0
  6
Continuous
 62
     7
100
AcDbLine
 10
256.0835207507
 20
-2344.5289722584
 30
0.0
 11
256.0835207507
 21
-2179.5295618818
 31
0.0
  0
LINE
  5
81
330
1F
100
AcDbEntity
  8
0
  6
Continuous
 62
     7
100
AcDbLine
 10
1082.6155808117
 20
-1975.8886491292
 30
0.0
 11
985.1155808117
 21
-1975.8886491292
 31
0.0
  0
LINE
  5
82
330
1F
100
AcDbEntity
  8
0
  6
Continuous
 62
     7
100
AcDbLine
 10
991.8665101956
 20
-1975.8886491292
 30
0.0
 11
1085.0155808117
 21
-1920.8599816085
 31
0.0
  0
LINE
  5
83
330
1F
100
AcDbEntity
  8
0
  6
Continuous
 62
     7
100
AcDbLine
 10
1082.6155808117
 20
-1979.4886491292
 30
0.0
 11
985.1155808117
 21
-1979.4886491292
 31
0.0
  0
LINE
  5
84
330
1F
100
AcDbEntity
  8
0
  6
Continuous
 62
     7
100
AcDbLine
 10
987.3155808117
 20
-1994.4886491292
 30
0.0
 11
1100.3670758284
 21
-1994.4886491292
 31
0.0
  0
LINE
  5
85
330
1F
100
AcDbEntity
  8
0
  6
Continuous
 62
     7
100
AcDbLine
 10
994.8155808117
 20
-2002.4886491292
 30
0.0
 11
1098.3991873691
 21
-2002.4886491292
 31
0.0
  0
ARC
  5
86
330
1F
100
AcDbEntity
  8
0
  6
HIDDEN2
 62
     7
100
AcDbCircle
 10
1028.3155808117
 20
-2224.4886491292
 30
0.0
 40
30.0
100
AcDbArc
 50
180.0
 51
270.0
  0
ARC
  5
87
330
1F
100
AcDbEntity
  8
0
  6
Continuous
 62
     7
100
AcDbCircle
 10
1024.8155808117
 20
-2229.4886491292
 30
0.0
 40
30.0
100
AcDbArc
 50
180.0
 51
270.0
  0
LINE
  5
88
330
1F
100
AcDbEntity
  8
0
  6
Continuous
 62
     7
100
AcDbLine
 10
1023.3155808117
 20
-2505.4886491292
 30
0.0
 11
1053.3155808117
 21
-2505.4886491292
 31
0.0
  0
LINE
  5
89
330
1F
100
AcDbEntity
  8
0
  6
Continuous
 62
     7
100
AcDbLine
 10
1023.3155808117
 20
-2509.4886491292
 30
0.0
 11
1053.3155808117
 21
-2509.4886491292
 31
0.0
  0
ARC
  5
8A
330
1F
100
AcDbEntity
  8
0
  6
Continuous
 62
     7
100
AcDbCircle
 10
1031.3155808117
 20
-2547.4886491292
 30
0.0
 40
8.0
100
AcDbArc
 50
90.0
 51
180.0
  0
ARC
  5
8B
330
1F
100
AcDbEntity
  8
0
  6
Continuous
 62
     7
100
AcDbCircle
 10
1031.3155808117
 20
-2591.4886491292
 30
0.0
 40
8.0
100
AcDbArc
 50
180.0
 51
270.0
  0
LINE
  5
8C
330
1F
100
AcDbEntity
  8
0
  6
Continuous
 62
     7
100
AcDbLine
 10
1018.3155808117
 20
-2517.4886491292
 30
0.0
 11
1075.8155808117
 21
-2517.4886491292
 31
0.0
  0
ARC
  5
8D
330
1F
100
AcDbEntity
  8
0
  6
Continuous
 62
     7
100
AcDbCircle
 10
1026.3155808117
 20
-2517.4886491292
 30
0.0
 40
8.0
100
AcDbArc
 50
90.0
 51
180.0
  0
LINE
  5
8E
330
1F
100
AcDbEntity
  8
0
  6
HIDDEN2
 62
     7
100
AcDbLine
 10
998.3155808117
 20
-2224.4886491292
 30
0.0
 11
998.3155808117
 21
-2002.4886491292
 31
0.0
  0
LINE
  5
8F
330
1F
100
AcDbEntity
  8
0
  6
Continuous
 62
     7
100
AcDbLine
 10
994.8155808117
 20
-2229.4886491292
 30
0.0
 11
994.8155808117
 21
-2002.4886491292
 31
0.0
  0
LINE
  5
90
330
1F
100
AcDbEntity
  8
0
  6
Continuous
 62
     7
100
AcDbLine
 10
1022.3155808117
 20
-2517.4886491292
 30
0.0
 11
1023.3155808117
 21
-2558.4886491292
 31
0.0
  0
LINE
  5
91
330
1F
100
AcDbEntity
  8
0
  6
Continuous
 62
     7
100
AcDbLine
 10
1023.3155808117
 20
-2547.4886491292
 30
0.0
 11
1023.3155808117
 21
-2591.4886491292
 31
0.0
  0
LINE
  5
92
330
1F
100
AcDbEntity
  8
0
  6
Continuous
 62
     7
100
AcDbLine
 10
1023.3155808117
 20
-2509.4886491292
 30
0.0
 11
1023.3155808117
 21
-2505.4886491292
 31
0.0
  0
LINE
  5
93
330
1F
100
AcDbEntity
  8
0
  6
Continuous
 62
     7
100
AcDbLine
 10
994.8155808117
 20
-2002.4886491292
 30
0.0
 11
987.3155808117
 21
-2002.4886491292
 31
0.0
  0
POINT
  5
94
330
1F
100
AcDbEntity
  8
0
  6
Continuous
 62
     7
100
AcDbPoint
 10
983.3155808117
 20
-1998.4886491292
 30
0.0
  0
ARC
  5
95
330
1F
100
AcDbEntity
  8
0
  6
Continuous
 62
     7
100
AcDbCircle
 10
987.3155808117
 20
-1998.4886491292
 30
0.0
 40
4.0
100
AcDbArc
 50
90.0
 51
180.0
  0
ARC
  5
96
330
1F
100
AcDbEntity
  8
0
  6
Continuous
 62
     7
100
AcDbCircle
 10
987.3155808117
 20
-1998.4886491292
 30
0.0
 40
4.0
100
AcDbArc
 50
180.0
 51
270.0
  0
ARC
  5
97
330
1F
100
AcDbEntity
  8
0
  6
Continuous
 62
     7
100
AcDbCircle
 10
985.1155808117
 20
-1977.6886491292
 30
0.0
 40
1.8
100
AcDbArc
 50
90.0
 51
270.0
  0
LINE
  5
98
330
1F
100
AcDbEntity
  8
0
  6
HIDDEN2
 62
     7
100
AcDbLine
 10
1418.3155808117
 20
-2002.4886491292
 30
0.0
 11
1418.3155808117
 21
-2224.4886491292
 31
0.0
  0
LINE
  5
99
330
1F
100
AcDbEntity
  8
0
  6
Continuous
 62
     7
100
AcDbLine
 10
1421.8155808117
 20
-2002.4886491292
 30
0.0
 11
1421.8155808117
 21
-2229.4886491292
 31
0.0
  0
LINE
  5
9A
330
1F
100
AcDbEntity
  8
0
  6
Continuous
 62
     7
100
AcDbLine
 10
1311.8155808117
 20
-1964.4886491292
 30
0.0
 11
1363.3155808117
 21
-2269.4886491292
 31
0.0
  0
LINE
  5
9B
330
1F
100
AcDbEntity
  8
0
  6
Continuous
 62
     7
100
AcDbLine
 10
1053.3155808117
 20
-2269.4886491292
 30
0.0
 11
1104.8155808117
 21
-1964.4886491292
 31
0.0
  0
LINE
  5
9C
330
1F
100
AcDbEntity
  8
0
  6
Continuous
 62
     7
100
AcDbLine
 10
1363.3155808117
 20
-2509.4886491292
 30
0.0
 11
1363.3155808117
 21
-2269.4886491292
 31
0.0
  0
LINE
  5
9D
330
1F
100
AcDbEntity
  8
0
  6
Continuous
 62
     7
100
AcDbLine
 10
1053.3155808117
 20
-2269.4886491292
 30
0.0
 11
1053.3155808117
 21
-2509.4886491292
 31
0.0
  0
LINE
  5
9E
330
1F
100
AcDbEntity
  8
0
  6
Continuous
 62
     7
100
AcDbLine
 10
1053.3155808117
 20
-2509.4886491292
 30
0.0
 11
1363.3155808117
 21
-2509.4886491292
 31
0.0
  0
LINE
  5
9F
330
1F
100
AcDbEntity
  8
0
  6
Continuous
 62
     7
100
AcDbLine
 10
1070.8155808117
 20
-2558.4886491292
 30
0.0
 11
1071.8155808117
 21
-2517.4886491292
 31
0.0
  0
LINE
  5
A0
330
1F
100
AcDbEntity
  8
0
  6
Continuous
 62
     7
100
AcDbLine
 10
1044.3155808117
 20
-2517.4886491292
 30
0.0
 11
1043.3155808117
 21
-2558.4886491292
 31
0.0
  0
LINE
  5
A1
330
1F
100
AcDbEntity
  8
0
  6
Continuous
 62
     7
100
AcDbLine
 10
1050.8155808117
 20
-2558.4886491292
 30
0.0
 11
1049.8155808117
 21
-2517.4886491292
 31
0.0
  0
LINE
  5
A2
330
1F
100
AcDbEntity
  8
0
  6
Continuous
 62
     7
100
AcDbLine
 10
1070.8155808117
 20
-2591.4886491292
 30
0.0
 11
1070.8155808117
 21
-2547.4886491292
 31
0.0
  0
LINE
  5
A3
330
1F
100
AcDbEntity
  8
0
  6
Continuous
 62
     7
100
AcDbLine
 10
1043.3155808117
 20
-2591.4886491292
 30
0.0
 11
1043.3155808117
 21
-2547.4886491292
 31
0.0
  0
LINE
  5
A4
330
1F
100
AcDbEntity
  8
0
  6
Continuous
 62
     7
100
AcDbLine
 10
1050.8155808117
 20
-2547.4886491292
 30
0.0
 11
1050.8155808117
 21
-2591.4886491292
 31
0.0
  0
ARC
  5
A5
330
1F
100
AcDbEntity
  8
0
  6
Continuous
 62
     7
100
AcDbCircle
 10
1058.8155808117
 20
-2591.4886491292
 30
0.0
 40
8.0
100
AcDbArc
 50
180.0
 51
270.0
  0
LINE
  5
A6
330
1F
100
AcDbEntity
  8
0
  6
Continuous
 62
     7
100
AcDbLine
 10
1031.3155808117
 20
-2599.4886491292
 30
0.0
 11
1035.3155808117
 21
-2599.4886491292
 31
0.0
  0
ARC
  5
A7
330
1F
100
AcDbEntity
  8
0
  6
Continuous
 62
     7
100
AcDbCircle
 10
1035.3155808117
 20
-2591.4886491292
 30
0.0
 40
8.0
100
AcDbArc
 50
270.0
 51
0.0
  0
LINE
  5
A8
330
1F
100
AcDbEntity
  8
0
  6
Continuous
 62
     7
100
AcDbLine
 10
1058.8155808117
 20
-2599.4886491292
 30
0.0
 11
1062.8155808117
 21
-2599.4886491292
 31
0.0
  0
ARC
  5
A9
330
1F
100
AcDbEntity
  8
0
  6
Continuous
 62
     7
100
AcDbCircle
 10
1062.8155808117
 20
-2591.4886491292
 30
0.0
 40
8.0
100
AcDbArc
 50
270.0
 51
0.0
  0
ARC
  5
AA
330
1F
100
AcDbEntity
  8
0
  6
Continuous
 62
     7
100
AcDbCircle
 10
1058.8155808117
 20
-2547.4886491292
 30
0.0
 40
8.0
100
AcDbArc
 50
90.0
 51
180.0
  0
LINE
  5
AB
330
1F
100
AcDbEntity
  8
0
  6
Continuous
 62
     7
100
AcDbLine
 10
1035.3155808117
 20
-2539.4886491292
 30
0.0
 11
1031.3155808117
 21
-2539.4886491292
 31
0.0
  0
ARC
  5
AC
330
1F
100
AcDbEntity
  8
0
  6
Continuous
 62
     7
100
AcDbCircle
 10
1035.3155808117
 20
-2547.4886491292
 30
0.0
 40
8.0
100
AcDbArc
 50
0.0
 51
90.0
  0
LINE
  5
AD
330
1F
100
AcDbEntity
  8
0
  6
Continuous
 62
     7
100
AcDbLine
 10
1062.8155808117
 20
-2539.4886491292
 30
0.0
 11
1058.8155808117
 21
-2539.4886491292
 31
0.0
  0
ARC
  5
AE
330
1F
100
AcDbEntity
  8
0
  6
Continuous
 62
     7
100
AcDbCircle
 10
1062.8155808117
 20
-2547.4886491292
 30
0.0
 40
8.0
100
AcDbArc
 50
0.0
 51
90.0
  0
LINE
  5
AF
330
1F
100
AcDbEntity
  8
0
  6
Continuous
 62
     7
100
AcDbLine
 10
1049.3155808117
 20
-2509.4886491292
 30
0.0
 11
1035.3155808117
 21
-2509.4886491292
 31
0.0
  0
ARC
  5
B0
330
1F
100
AcDbEntity
  8
0
  6
Continuous
 62
     7
100
AcDbCircle
 10
1040.3155808117
 20
-2517.4886491292
 30
0.0
 40
8.0
100
AcDbArc
 50
32.4617449672
 51
90.0
  0
ARC
  5
B1
330
1F
100
AcDbEntity
  8
0
  6
Continuous
 62
     7
100
AcDbCircle
 10
1053.8155808117
 20
-2517.4886491292
 30
0.0
 40
8.0
100
AcDbArc
 50
90.0
 51
180.0
  0
LINE
  5
B2
330
1F
100
AcDbEntity
  8
0
  6
Continuous
 62
     7
100
AcDbLine
 10
1075.3155808117
 20
-2509.4886491292
 30
0.0
 11
1061.3155808117
 21
-2509.4886491292
 31
0.0
  0
ARC
  5
B3
330
1F
100
AcDbEntity
  8
0
  6
Continuous
 62
     7
100
AcDbCircle
 10
1067.8155808117
 20
-2517.4886491292
 30
0.0
 40
8.0
100
AcDbArc
 50
0.0
 51
90.0
  0
LINE
  5
B4
330
1F
100
AcDbEntity
  8
0
  6
Continuous
 62
     7
100
AcDbLine
 10
1393.3155808117
 20
-2505.4886491292
 30
0.0
 11
1363.3155808117
 21
-2505.4886491292
 31
0.0
  0
LINE
  5
B5
330
1F
100
AcDbEntity
  8
0
  6
Continuous
 62
     7
100
AcDbLine
 10
1363.3155808117
 20
-2509.4886491292
 30
0.0
 11
1393.3155808117
 21
-2509.4886491292
 31
0.0
  0
ARC
  5
B6
330
1F
100
AcDbEntity
  8
0
  6
Continuous
 62
     7
100
AcDbCircle
 10
1385.3155808117
 20
-2547.4886491292
 30
0.0
 40
8.0
100
AcDbArc
 50
0.0
 51
90.0
  0
LINE
  5
B7
330
1F
100
AcDbEntity
  8
0
  6
Continuous
 62
     7
100
AcDbLine
 10
1368.3155808117
 20
-2517.4886491292
 30
0.0
 11
1390.3155808117
 21
-2517.4886491292
 31
0.0
  0
ARC
  5
B8
330
1F
100
AcDbEntity
  8
0
  6
Continuous
 62
     7
100
AcDbCircle
 10
1385.3155808117
 20
-2591.4886491292
 30
0.0
 40
8.0
100
AcDbArc
 50
270.0
 51
0.0
  0
LINE
  5
B9
330
1F
100
AcDbEntity
  8
0
  6
Continuous
 62
     7
100
AcDbLine
 10
1372.3155808117
 20
-2517.4886491292
 30
0.0
 11
1373.3155808117
 21
-2558.4886491292
 31
0.0
  0
LINE
  5
BA
330
1F
100
AcDbEntity
  8
0
  6
Continuous
 62
     7
100
AcDbLine
 10
1365.8155808117
 20
-2558.4886491292
 30
0.0
 11
1366.8155808117
 21
-2517.4886491292
 31
0.0
  0
LINE
  5
BB
330
1F
100
AcDbEntity
  8
0
  6
Continuous
 62
     7
100
AcDbLine
 10
1344.8155808117
 20
-2517.4886491292
 30
0.0
 11
1345.8155808117
 21
-2558.4886491292
 31
0.0
  0
LINE
  5
BC
330
1F
100
AcDbEntity
  8
0
  6
Continuous
 62
     7
100
AcDbLine
 10
1373.3155808117
 20
-2547.4886491292
 30
0.0
 11
1373.3155808117
 21
-2591.4886491292
 31
0.0
  0
LINE
  5
BD
330
1F
100
AcDbEntity
  8
0
  6
Continuous
 62
     7
100
AcDbLine
 10
1365.8155808117
 20
-2591.4886491292
 30
0.0
 11
1365.8155808117
 21
-2547.4886491292
 31
0.0
  0
LINE
  5
BE
330
1F
100
AcDbEntity
  8
0
  6
Continuous
 62
     7
100
AcDbLine
 10
1345.8155808117
 20
-2547.4886491292
 30
0.0
 11
1345.8155808117
 21
-2591.4886491292
 31
0.0
  0
ARC
  5
BF
330
1F
100
AcDbEntity
  8
0
  6
Continuous
 62
     7
100
AcDbCircle
 10
1357.8155808117
 20
-2591.4886491292
 30
0.0
 40
8.0
100
AcDbArc
 50
270.0
 51
0.0
  0
ARC
  5
C0
330
1F
100
AcDbEntity
  8
0
  6
Continuous
 62
     7
100
AcDbCircle
 10
1353.8155808117
 20
-2591.4886491292
 30
0.0
 40
8.0
100
AcDbArc
 50
180.0
 51
270.0
  0
LINE
  5
C1
330
1F
100
AcDbEntity
  8
0
  6
Continuous
 62
     7
100
AcDbLine
 10
1353.8155808117
 20
-2599.4886491292
 30
0.0
 11
1357.8155808117
 21
-2599.4886491292
 31
0.0
  0
ARC
  5
C2
330
1F
100
AcDbEntity
  8
0
  6
Continuous
 62
     7
100
AcDbCircle
 10
1381.3155808117
 20
-2591.4886491292
 30
0.0
 40
8.0
100
AcDbArc
 50
180.0
 51
270.0
  0
LINE
  5
C3
330
1F
100
AcDbEntity
  8
0
  6
Continuous
 62
     7
100
AcDbLine
 10
1381.3155808117
 20
-2599.4886491292
 30
0.0
 11
1385.3155808117
 21
-2599.4886491292
 31
0.0
  0
ARC
  5
C4
330
1F
100
AcDbEntity
  8
0
  6
Continuous
 62
     7
100
AcDbCircle
 10
1357.8155808117
 20
-2547.4886491292
 30
0.0
 40
8.0
100
AcDbArc
 50
0.0
 51
90.0
  0
ARC
  5
C5
330
1F
100
AcDbEntity
  8
0
  6
Continuous
 62
     7
100
AcDbCircle
 10
1353.8155808117
 20
-2547.4886491292
 30
0.0
 40
8.0
100
AcDbArc
 50
90.0
 51
180.0
  0
LINE
  5
C6
330
1F
100
AcDbEntity
  8
0
  6
Continuous
 62
     7
100
AcDbLine
 10
1357.8155808117
 20
-2539.4886491292
 30
0.0
 11
1353.8155808117
 21
-2539.4886491292
 31
0.0
  0
ARC
  5
C7
330
1F
100
AcDbEntity
  8
0
  6
Continuous
 62
     7
100
AcDbCircle
 10
1381.3155808117
 20
-2547.4886491292
 30
0.0
 40
8.0
100
AcDbArc
 50
90.0
 51
180.0
  0
LINE
  5
C8
330
1F
100
AcDbEntity
  8
0
  6
Continuous
 62
     7
100
AcDbLine
 10
1385.3155808117
 20
-2539.4886491292
 30
0.0
 11
1381.3155808117
 21
-2539.4886491292
 31
0.0
  0
LINE
  5
C9
330
1F
100
AcDbEntity
  8
0
  6
Continuous
 62
     7
100
AcDbLine
 10
1378.3155808117
 20
-2477.4886491292
 30
0.0
 11
1378.3155808117
 21
-2473.4886491292
 31
0.0
  0
LINE
  5
CA
330
1F
100
AcDbEntity
  8
0
  6
Continuous
 62
     7
100
AcDbLine
 10
1360.3155808117
 20
-2509.4886491292
 30
0.0
 11
1346.3155808117
 21
-2509.4886491292
 31
0.0
  0
LINE
  5
CB
330
1F
100
AcDbEntity
  8
0
  6
Continuous
 62
     7
100
AcDbLine
 10
1340.8155808117
 20
-2517.4886491292
 30
0.0
 11
1370.8155808117
 21
-2517.4886491292
 31
0.0
  0
ARC
  5
CC
330
1F
100
AcDbEntity
  8
0
  6
Continuous
 62
     7
100
AcDbCircle
 10
1348.8155808117
 20
-2517.4886491292
 30
0.0
 40
8.0
100
AcDbArc
 50
90.0
 51
180.0
  0
LINE
  5
CD
330
1F
100
AcDbEntity
  8
0
  6
Continuous
 62
     7
100
AcDbLine
 10
1363.3155808117
 20
-2485.4886491292
 30
0.0
 11
1370.3155808117
 21
-2485.4886491292
 31
0.0
  0
ARC
  5
CE
330
1F
100
AcDbEntity
  8
0
  6
Continuous
 62
     7
100
AcDbCircle
 10
1376.3155808117
 20
-2517.4886491292
 30
0.0
 40
8.0
100
AcDbArc
 50
90.0
 51
147.5382550328
  0
ARC
  5
CF
330
1F
100
AcDbEntity
  8
0
  6
Continuous
 62
     7
100
AcDbCircle
 10
1370.3155808117
 20
-2477.4886491292
 30
0.0
 40
8.0
100
AcDbArc
 50
270.0
 51
0.0
  0
LINE
  5
D0
330
1F
100
AcDbEntity
  8
0
  6
Continuous
 62
     7
100
AcDbLine
 10
1371.3155808117
 20
-2509.4886491292
 30
0.0
 11
1385.3155808117
 21
-2509.4886491292
 31
0.0
  0
ARC
  5
D1
330
1F
100
AcDbEntity
  8
0
  6
Continuous
 62
     7
100
AcDbCircle
 10
1362.8155808117
 20
-2517.4886491292
 30
0.0
 40
8.0
100
AcDbArc
 50
0.0
 51
90.0
  0
LINE
  5
D2
330
1F
100
AcDbEntity
  8
0
  6
Continuous
 62
     7
100
AcDbLine
 10
1370.3155808117
 20
-2465.4886491292
 30
0.0
 11
1363.3155808117
 21
-2465.4886491292
 31
0.0
  0
ARC
  5
D3
330
1F
100
AcDbEntity
  8
0
  6
Continuous
 62
     7
100
AcDbCircle
 10
1370.3155808117
 20
-2473.4886491292
 30
0.0
 40
8.0
100
AcDbArc
 50
0.0
 51
90.0
  0
LINE
  5
D4
330
1F
100
AcDbEntity
  8
0
  6
Continuous
 62
     7
100
AcDbLine
 10
1393.3155808117
 20
-2558.4886491292
 30
0.0
 11
1394.3155808117
 21
-2517.4886491292
 31
0.0
  0
LINE
  5
D5
330
1F
100
AcDbEntity
  8
0
  6
Continuous
 62
     7
100
AcDbLine
 10
1393.3155808117
 20
-2591.4886491292
 30
0.0
 11
1393.3155808117
 21
-2547.4886491292
 31
0.0
  0
LINE
  5
D6
330
1F
100
AcDbEntity
  8
0
  6
Continuous
 62
     7
100
AcDbLine
 10
1393.3155808117
 20
-2509.4886491292
 30
0.0
 11
1393.3155808117
 21
-2505.4886491292
 31
0.0
  0
LINE
  5
D7
330
1F
100
AcDbEntity
  8
0
  6
Continuous
 62
     7
100
AcDbLine
 10
1390.3155808117
 20
-2517.4886491292
 30
0.0
 11
1398.3155808117
 21
-2517.4886491292
 31
0.0
  0
ARC
  5
D8
330
1F
100
AcDbEntity
  8
0
  6
Continuous
 62
     7
100
AcDbCircle
 10
1390.3155808117
 20
-2517.4886491292
 30
0.0
 40
8.0
100
AcDbArc
 50
0.0
 51
90.0
  0
LINE
  5
D9
330
1F
100
AcDbEntity
  8
0
  6
Continuous
 62
     7
100
AcDbLine
 10
1363.3155808117
 20
-2269.4886491292
 30
0.0
 11
1053.3155808117
 21
-2269.4886491292
 31
0.0
  0
LINE
  5
DA
330
1F
100
AcDbEntity
  8
0
  6
Continuous
 62
     7
100
AcDbLine
 10
1363.3155808117
 20
-2269.4886491292
 30
0.0
 11
1053.3155808117
 21
-2269.4886491292
 31
0.0
  0
LINE
  5
DB
330
1F
100
AcDbEntity
  8
0
  6
Continuous
 62
     7
100
AcDbLine
 10
1055.0265442669
 20
-2259.4886491292
 30
0.0
 11
1024.8155808117
 21
-2259.4886491292
 31
0.0
  0
LINE
  5
DC
330
1F
100
AcDbEntity
  8
0
  6
HIDDEN2
 62
     7
100
AcDbLine
 10
1028.3155808117
 20
-2254.4886491292
 30
0.0
 11
1055.8820259945
 21
-2254.4886491292
 31
0.0
  0
LINE
  5
DD
330
1F
100
AcDbEntity
  8
0
  6
Continuous
 62
     7
100
AcDbLine
 10
1024.8155808117
 20
-2259.4886491292
 30
0.0
 11
1024.8155808117
 21
-2265.4886491292
 31
0.0
  0
LINE
  5
DE
330
1F
100
AcDbEntity
  8
0
  6
Continuous
 62
     7
100
AcDbLine
 10
1053.9999661938
 20
-2265.4886491292
 30
0.0
 11
1024.8155808117
 21
-2265.4886491292
 31
0.0
  0
ARC
  5
DF
330
1F
100
AcDbEntity
  8
0
  6
Continuous
 62
     7
100
AcDbCircle
 10
1391.8155808117
 20
-2229.4886491292
 30
0.0
 40
30.0
100
AcDbArc
 50
270.0
 51
0.0
  0
ARC
  5
E0
330
1F
100
AcDbEntity
  8
0
  6
HIDDEN2
 62
     7
100
AcDbCircle
 10
1388.3155808117
 20
-2224.4886491292
 30
0.0
 40
30.0
100
AcDbArc
 50
270.0
 51
0.0
  0
LINE
  5
E1
330
1F
100
AcDbEntity
  8
0
  6
Continuous
 62
     7
100
AcDbLine
 10
1391.8155808117
 20
-2259.4886491292
 30
0.0
 11
1391.8155808117
 21
-2265.4886491292
 31
0.0
  0
LINE
  5
E2
330
1F
100
AcDbEntity
  8
0
  6
Continuous
 62
     7
100
AcDbLine
 10
1391.8155808117
 20
-2265.4886491292
 30
0.0
 11
1362.6311954297
 21
-2265.4886491292
 31
0.0
  0
LINE
  5
E3
330
1F
100
AcDbEntity
  8
0
  6
HIDDEN2
 62
     7
100
AcDbLine
 10
1360.749135629
 20
-2254.4886491292
 30
0.0
 11
1388.3155808117
 21
-2254.4886491292
 31
0.0
  0
LINE
  5
E4
330
1F
100
AcDbEntity
  8
0
  6
Continuous
 62
     7
100
AcDbLine
 10
1391.8155808117
 20
-2259.4886491292
 30
0.0
 11
1361.6046173566
 21
-2259.4886491292
 31
0.0
  0
LINE
  5
E5
330
1F
100
AcDbEntity
  8
0
  6
Continuous
 62
     7
100
AcDbLine
 10
1102.8155808117
 20
-1839.4886491292
 30
0.0
 11
1313.8155808117
 21
-1839.4886491292
 31
0.0
  0
LINE
  5
E6
330
1F
100
AcDbEntity
  8
0
  6
Continuous
 62
     7
100
AcDbLine
 10
1102.8155808117
 20
-1964.4886491292
 30
0.0
 11
1313.8155808117
 21
-1964.4886491292
 31
0.0
  0
LINE
  5
E7
330
1F
100
AcDbEntity
  8
0
  6
Continuous
 62
     7
100
AcDbLine
 10
1095.8155808117
 20
-1846.4886491292
 30
0.0
 11
1095.8155808117
 21
-1957.4886491292
 31
0.0
  0
ARC
  5
E8
330
1F
100
AcDbEntity
  8
0
  6
Continuous
 62
     7
100
AcDbCircle
 10
1082.6155808117
 20
-1972.2886491292
 30
0.0
 40
7.2
100
AcDbArc
 50
270.0
 51
0.0
  0
LINE
  5
E9
330
1F
100
AcDbEntity
  8
0
  6
Continuous
 62
     7
100
AcDbLine
 10
1095.2155808117
 20
-1906.4886491292
 30
0.0
 11
1085.0155808117
 21
-1906.4886491292
 31
0.0
  0
LINE
  5
EA
330
1F
100
AcDbEntity
  8
0
  6
Continuous
 62
     7
100
AcDbLine
 10
1095.2155808117
 20
-1921.4886491292
 30
0.0
 11
1085.0155808117
 21
-1921.4886491292
 31
0.0
  0
ARC
  5
EB
330
1F
100
AcDbEntity
  8
0
  6
Continuous
 62
     7
100
AcDbCircle
 10
1082.6155808117
 20
-1972.2886491292
 30
0.0
 40
3.6
100
AcDbArc
 50
270.0
 51
0.0
  0
LINE
  5
EC
330
1F
100
AcDbEntity
  8
0
  6
Continuous
 62
     7
100
AcDbLine
 10
1085.0155808117
 20
-1921.4886491292
 30
0.0
 11
1085.0155808117
 21
-1906.4886491292
 31
0.0
  0
LINE
  5
ED
330
1F
100
AcDbEntity
  8
0
  6
Continuous
 62
     7
100
AcDbLine
 10
1084.4155808117
 20
-1907.0886491292
 30
0.0
 11
1084.4155808117
 21
-1920.8886491292
 31
0.0
  0
LINE
  5
EE
330
1F
100
AcDbEntity
  8
0
  6
Continuous
 62
     7
100
AcDbLine
 10
1084.4155808117
 20
-1907.0886491292
 30
0.0
 11
1085.0155808117
 21
-1906.4886491292
 31
0.0
  0
LINE
  5
EF
330
1F
100
AcDbEntity
  8
0
  6
Continuous
 62
     7
100
AcDbLine
 10
1085.0155808117
 20
-1921.4886491292
 30
0.0
 11
1084.4155808117
 21
-1920.8886491292
 31
0.0
  0
LINE
  5
F0
330
1F
100
AcDbEntity
  8
0
  6
Continuous
 62
     7
100
AcDbLine
 10
1086.2155808117
 20
-1921.4886491292
 30
0.0
 11
1086.2155808117
 21
-1972.2886491292
 31
0.0
  0
LINE
  5
F1
330
1F
100
AcDbEntity
  8
0
  6
Continuous
 62
     7
100
AcDbLine
 10
1089.8155808117
 20
-1921.4886491292
 30
0.0
 11
1089.8155808117
 21
-1972.2886491292
 31
0.0
  0
ARC
  5
F2
330
1F
100
AcDbEntity
  8
0
  6
Continuous
 62
     7
100
AcDbCircle
 10
1102.8155808117
 20
-1957.4886491292
 30
0.0
 40
7.0
100
AcDbArc
 50
180.0
 51
270.0
  0
LINE
  5
F3
330
1F
100
AcDbEntity
  8
0
  6
Continuous
 62
     7
100
AcDbLine
 10
1095.2155808117
 20
-1906.4886491292
 30
0.0
 11
1095.8155808117
 21
-1907.0886491292
 31
0.0
  0
LINE
  5
F4
330
1F
100
AcDbEntity
  8
0
  6
Continuous
 62
     7
100
AcDbLine
 10
1095.8155808117
 20
-1920.8886491292
 30
0.0
 11
1095.2155808117
 21
-1921.4886491292
 31
0.0
  0
LINE
  5
F5
330
1F
100
AcDbEntity
  8
0
  6
Continuous
 62
     7
100
AcDbLine
 10
1095.2155808117
 20
-1921.4886491292
 30
0.0
 11
1095.2155808117
 21
-1906.4886491292
 31
0.0
  0
LINE
  5
F6
330
1F
100
AcDbEntity
  8
0
  6
Continuous
 62
     7
100
AcDbLine
 10
1095.8155808117
 20
-1907.0886491292
 30
0.0
 11
1095.8155808117
 21
-1920.8886491292
 31
0.0
  0
ARC
  5
F7
330
1F
100
AcDbEntity
  8
0
  6
Continuous
 62
     7
100
AcDbCircle
 10
1102.8155808117
 20
-1846.4886491292
 30
0.0
 40
7.0
100
AcDbArc
 50
90.0
 51
180.0
  0
LINE
  5
F8
330
1F
100
AcDbEntity
  8
0
  6
Continuous
 62
     7
100
AcDbLine
 10
1320.8155808117
 20
-1846.4886491292
 30
0.0
 11
1320.8155808117
 21
-1957.4886491292
 31
0.0
  0
LINE
  5
F9
330
1F
100
AcDbEntity
  8
0
  6
Continuous
 62
     7
100
AcDbLine
 10
1334.0155808117
 20
-1979.4886491292
 30
0.0
 11
1431.5155808117
 21
-1979.4886491292
 31
0.0
  0
LINE
  5
FA
330
1F
100
AcDbEntity
  8
0
  6
Continuous
 62
     7
100
AcDbLine
 10
1334.0155808117
 20
-1975.8886491292
 30
0.0
 11
1431.5155808117
 21
-1975.8886491292
 31
0.0
  0
LINE
  5
FB
330
1F
100
AcDbEntity
  8
0
  6
Continuous
 62
     7
100
AcDbLine
 10
1424.7646514279
 20
-1975.8886491292
 30
0.0
 11
1331.6155808117
 21
-1920.8599816085
 31
0.0
  0
LINE
  5
FC
330
1F
100
AcDbEntity
  8
0
  6
Continuous
 62
     7
100
AcDbLine
 10
1316.2640857951
 20
-1994.4886491292
 30
0.0
 11
1429.3155808117
 21
-1994.4886491292
 31
0.0
  0
LINE
  5
FD
330
1F
100
AcDbEntity
  8
0
  6
Continuous
 62
     7
100
AcDbLine
 10
1317.6328565593
 20
-2002.4886491292
 30
0.0
 11
1421.8155808117
 21
-2002.4886491292
 31
0.0
  0
ARC
  5
FE
330
1F
100
AcDbEntity
  8
0
  6
Continuous
 62
     7
100
AcDbCircle
 10
1334.0155808117
 20
-1972.2886491292
 30
0.0
 40
7.2
100
AcDbArc
 50
180.0
 51
270.0
  0
LINE
  5
FF
330
1F
100
AcDbEntity
  8
0
  6
Continuous
 62
     7
100
AcDbLine
 10
1321.4155808117
 20
-1906.4886491292
 30
0.0
 11
1331.6155808117
 21
-1906.4886491292
 31
0.0
  0
LINE
  5
100
330
1F
100
AcDbEntity
  8
0
  6
Continuous
 62
     7
100
AcDbLine
 10
1321.4155808117
 20
-1921.4886491292
 30
0.0
 11
1331.6155808117
 21
-1921.4886491292
 31
0.0
  0
LINE
  5
101
330
1F
100
AcDbEntity
  8
0
  6
Continuous
 62
     7
100
AcDbLine
 10
1326.8155808117
 20
-1921.4886491292
 30
0.0
 11
1326.8155808117
 21
-1972.2886491292
 31
0.0
  0
ARC
  5
102
330
1F
100
AcDbEntity
  8
0
  6
Continuous
 62
     7
100
AcDbCircle
 10
1313.8155808117
 20
-1957.4886491292
 30
0.0
 40
7.0
100
AcDbArc
 50
270.0
 51
0.0
  0
LINE
  5
103
330
1F
100
AcDbEntity
  8
0
  6
Continuous
 62
     7
100
AcDbLine
 10
1321.4155808117
 20
-1906.4886491292
 30
0.0
 11
1320.8155808117
 21
-1907.0886491292
 31
0.0
  0
LINE
  5
104
330
1F
100
AcDbEntity
  8
0
  6
Continuous
 62
     7
100
AcDbLine
 10
1320.8155808117
 20
-1920.8886491292
 30
0.0
 11
1321.4155808117
 21
-1921.4886491292
 31
0.0
  0
LINE
  5
105
330
1F
100
AcDbEntity
  8
0
  6
Continuous
 62
     7
100
AcDbLine
 10
1320.8155808117
 20
-1907.0886491292
 30
0.0
 11
1320.8155808117
 21
-1920.8886491292
 31
0.0
  0
LINE
  5
106
330
1F
100
AcDbEntity
  8
0
  6
Continuous
 62
     7
100
AcDbLine
 10
1321.4155808117
 20
-1921.4886491292
 30
0.0
 11
1321.4155808117
 21
-1906.4886491292
 31
0.0
  0
LINE
  5
107
330
1F
100
AcDbEntity
  8
0
  6
Continuous
 62
     7
100
AcDbLine
 10
1330.4155808117
 20
-1921.4886491292
 30
0.0
 11
1330.4155808117
 21
-1972.2886491292
 31
0.0
  0
ARC
  5
108
330
1F
100
AcDbEntity
  8
0
  6
Continuous
 62
     7
100
AcDbCircle
 10
1334.0155808117
 20
-1972.2886491292
 30
0.0
 40
3.6
100
AcDbArc
 50
180.0
 51
270.0
  0
LINE
  5
109
330
1F
100
AcDbEntity
  8
0
  6
Continuous
 62
     7
100
AcDbLine
 10
1332.2155808117
 20
-1907.0886491292
 30
0.0
 11
1331.6155808117
 21
-1906.4886491292
 31
0.0
  0
LINE
  5
10A
330
1F
100
AcDbEntity
  8
0
  6
Continuous
 62
     7
100
AcDbLine
 10
1331.6155808117
 20
-1921.4886491292
 30
0.0
 11
1332.2155808117
 21
-1920.8886491292
 31
0.0
  0
LINE
  5
10B
330
1F
100
AcDbEntity
  8
0
  6
Continuous
 62
     7
100
AcDbLine
 10
1332.2155808117
 20
-1907.0886491292
 30
0.0
 11
1332.2155808117
 21
-1920.8886491292
 31
0.0
  0
LINE
  5
10C
330
1F
100
AcDbEntity
  8
0
  6
Continuous
 62
     7
100
AcDbLine
 10
1331.6155808117
 20
-1921.4886491292
 30
0.0
 11
1331.6155808117
 21
-1906.4886491292
 31
0.0
  0
ARC
  5
10D
330
1F
100
AcDbEntity
  8
0
  6
Continuous
 62
     7
100
AcDbCircle
 10
1429.3155808117
 20
-1998.4886491292
 30
0.0
 40
4.0
100
AcDbArc
 50
0.0
 51
90.0
  0
ARC
  5
10E
330
1F
100
AcDbEntity
  8
0
  6
Continuous
 62
     7
100
AcDbCircle
 10
1429.3155808117
 20
-1998.4886491292
 30
0.0
 40
4.0
100
AcDbArc
 50
270.0
 51
0.0
  0
LINE
  5
10F
330
1F
100
AcDbEntity
  8
0
  6
HIDDEN2
 62
     7
100
AcDbLine
 10
1419.8155808117
 20
-1994.4886491292
 30
0.0
 11
1429.3155808117
 21
-1994.4886491292
 31
0.0
  0
LINE
  5
110
330
1F
100
AcDbEntity
  8
0
  6
Continuous
 62
     7
100
AcDbLine
 10
1429.3155808117
 20
-2002.4886491292
 30
0.0
 11
1421.8155808117
 21
-2002.4886491292
 31
0.0
  0
POINT
  5
111
330
1F
100
AcDbEntity
  8
0
  6
Continuous
 62
     7
100
AcDbPoint
 10
1433.3155808117
 20
-1998.4886491292
 30
0.0
  0
ARC
  5
112
330
1F
100
AcDbEntity
  8
0
  6
Continuous
 62
     7
100
AcDbCircle
 10
1431.5155808117
 20
-1977.6886491292
 30
0.0
 40
1.8
100
AcDbArc
 50
270.0
 51
90.0
  0
ARC
  5
113
330
1F
100
AcDbEntity
  8
0
  6
Continuous
 62
     7
100
AcDbCircle
 10
1313.8155808117
 20
-1846.4886491292
 30
0.0
 40
7.0
100
AcDbArc
 50
0.0
 51
90.0
  0
LINE
  5
114
330
1F
100
AcDbEntity
  8
0
  6
Continuous
 62
     7
100
AcDbLine
 10
2049.4399086144
 20
-2509.4886491292
 30
0.0
 11
2769.4399086144
 21
-2509.4886491292
 31
0.0
  0
LINE
  5
115
330
1F
100
AcDbEntity
  8
0
  6
Continuous
 62
     7
100
AcDbLine
 10
2769.4399086144
 20
-2509.4886491292
 30
0.0
 11
2769.4399086144
 21
-2269.4886491292
 31
0.0
  0
LINE
  5
116
330
1F
100
AcDbEntity
  8
0
  6
Continuous
 62
     7
100
AcDbLine
 10
2769.4399086144
 20
-2269.4886491292
 30
0.0
 11
2049.4399086144
 21
-2269.4886491292
 31
0.0
  0
LINE
  5
117
330
1F
100
AcDbEntity
  8
0
  6
Continuous
 62
     7
100
AcDbLine
 10
2049.4399086144
 20
-2269.4886491292
 30
0.0
 11
2049.4399086144
 21
-2509.4886491292
 31
0.0
  0
LINE
  5
118
330
1F
100
AcDbEntity
  8
0
  6
Continuous
 62
     7
100
AcDbLine
 10
2769.4399086144
 20
-2269.4886491292
 30
0.0
 11
2494.4399086144
 21
-2269.4886491292
 31
0.0
  0
CIRCLE
  5
119
330
1F
100
AcDbEntity
  8
0
  6
Continuous
 62
     7
100
AcDbCircle
 10
2619.4399086144
 20
-2084.4886491292
 30
0.0
 40
12.0
  0
CIRCLE
  5
11A
330
1F
100
AcDbEntity
  8
0
  6
Continuous
 62
     7
100
AcDbCircle
 10
2619.4399086144
 20
-2084.4886491292
 30
0.0
 40
14.0
  0
LINE
  5
11B
330
1F
100
AcDbEntity
  8
0
  6
Continuous
 62
     7
100
AcDbLine
 10
2704.4399086144
 20
-2066.9886491292
 30
0.0
 11
2704.4399086144
 21
-2166.9886491292
 31
0.0
  0
LINE
  5
11C
330
1F
100
AcDbEntity
  8
0
  6
Continuous
 62
     7
100
AcDbLine
 10
2534.4399086144
 20
-2166.9886491292
 30
0.0
 11
2534.4399086144
 21
-2066.9886491292
 31
0.0
  0
LINE
  5
11D
330
1F
100
AcDbEntity
  8
0
  6
Continuous
 62
     7
100
AcDbLine
 10
2494.4399086144
 20
-2269.4886491292
 30
0.0
 11
2494.4399086144
 21
-1964.4886491292
 31
0.0
  0
LINE
  5
11E
330
1F
100
AcDbEntity
  8
0
  6
Continuous
 62
     7
100
AcDbLine
 10
2731.2844520383
 20
-1967.2368145948
 30
0.0
 11
2769.4399086144
 21
-2269.4886491292
 31
0.0
  0
ARC
  5
11F
330
1F
100
AcDbEntity
  8
0
  6
Continuous
 62
     7
100
AcDbCircle
 10
2689.4399086144
 20
-2166.9886491292
 30
0.0
 40
15.0
100
AcDbArc
 50
270.0
 51
0.0
  0
ARC
  5
120
330
1F
100
AcDbEntity
  8
0
  6
Continuous
 62
     7
100
AcDbCircle
 10
2567.7716162935
 20
-2107.4886491292
 30
0.0
 40
7.0
100
AcDbArc
 50
286.601549599
 51
253.398450401
  0
LINE
  5
121
330
1F
100
AcDbEntity
  8
0
  6
Continuous
 62
     7
100
AcDbLine
 10
2689.4399086144
 20
-2181.9886491292
 30
0.0
 11
2549.4399086144
 21
-2181.9886491292
 31
0.0
  0
ARC
  5
122
330
1F
100
AcDbEntity
  8
0
  6
Continuous
 62
     7
100
AcDbCircle
 10
2549.4399086144
 20
-2166.9886491292
 30
0.0
 40
15.0
100
AcDbArc
 50
180.0
 51
270.0
  0
LINE
  5
123
330
1F
100
AcDbEntity
  8
0
  6
Continuous
 62
     7
100
AcDbLine
 10
2569.7716162935
 20
-2140.4886491292
 30
0.0
 11
2569.7716162935
 21
-2100.7804451967
 31
0.0
  0
LINE
  5
124
330
1F
100
AcDbEntity
  8
0
  6
Continuous
 62
     7
100
AcDbLine
 10
2565.7716162935
 20
-2100.7804451967
 30
0.0
 11
2565.7716162935
 21
-2140.4886491292
 31
0.0
  0
LINE
  5
125
330
1F
100
AcDbEntity
  8
0
  6
Continuous
 62
     7
100
AcDbLine
 10
2565.7716162935
 20
-2140.4886491292
 30
0.0
 11
2569.7716162935
 21
-2140.4886491292
 31
0.0
  0
CIRCLE
  5
126
330
1F
100
AcDbEntity
  8
0
  6
Continuous
 62
     7
100
AcDbCircle
 10
2619.4399086144
 20
-2149.4886491292
 30
0.0
 40
19.0
  0
LINE
  5
127
330
1F
100
AcDbEntity
  8
0
  6
Continuous
 62
     7
100
AcDbLine
 10
2672.7541026937
 20
-2120.0895693821
 30
0.0
 11
2683.568296773
 21
-2123.190489635
 31
0.0
  0
LINE
  5
128
330
1F
100
AcDbEntity
  8
0
  6
Continuous
 62
     7
100
AcDbLine
 10
2650.9357481062
 20
-2119.3276556508
 30
0.0
 11
2639.9315875979
 21
-2121.6666621725
 31
0.0
  0
HATCH
  5
129
330
1F
100
AcDbEntity
  8
0
  6
Continuous
 62
   150
100
AcDbHatch
 10
0.0
 20
0.0
 30
0.0
210
0.0
220
0.0
230
1.0
  2
SOLID
 70
     1
 71
     0
 91
        1
 92
        1
 93
        4
 72
     2
 10
2661.939908614415
 20
-2116.98864912915
 40
11.25000000000046
 50
263.9999999999901
 51
279.9999999999919
 73
     1
 72
     1
 10
2663.893450613167
 20
-2128.067736350537
 11
2663.893450613167
 21
-2105.909561907764
 72
     2
 10
2661.939908614413
 20
-2116.988649129151
 40
11.24999999999955
 50
79.99999999999316
 51
95.99999999999636
 73
     1
 72
     1
 10
2660.763963402652
 20
-2105.800277806258
 11
2660.763963402652
 21
-2128.177020452043
 97
        0
 75
     0
 76
     1
 98
        0
  0
CIRCLE
  5
12A
330
1F
100
AcDbEntity
  8
0
  6
Continuous
 62
     7
100
AcDbCircle
 10
2661.9399086144
 20
-2116.9886491292
 30
0.0
 40
11.24999999999909
  0
CIRCLE
  5
12B
330
1F
100
AcDbEntity
  8
0
  6
Continuous
 62
     7
100
AcDbCircle
 10
2661.9399086144
 20
-2116.9886491291
 30
0.0
 40
22.5
  0
LINE
  5
12C
330
1F
100
AcDbEntity
  8
0
  6
Continuous
 62
     7
100
AcDbLine
 10
2660.7639634027
 20
-2128.177020452
 30
0.0
 11
2659.5880181909
 21
-2139.3653917749
 31
0.0
  0
LINE
  5
12D
330
1F
100
AcDbEntity
  8
0
  6
Continuous
 62
     7
100
AcDbLine
 10
2656.3149086144
 20
-2126.7314349217
 30
0.0
 11
2650.6899086144
 21
-2136.4742207143
 31
0.0
  0
LINE
  5
12E
330
1F
100
AcDbEntity
  8
0
  6
Continuous
 62
     7
100
AcDbLine
 10
2655.013717017
 20
-2125.8537701072
 30
0.0
 11
2648.0875254196
 21
-2134.7188910853
 31
0.0
  0
LINE
  5
12F
330
1F
100
AcDbEntity
  8
0
  6
Continuous
 62
     7
100
AcDbLine
 10
2653.8473358606
 20
-2124.8035557968
 30
0.0
 11
2645.7547631068
 21
-2132.6184624645
 31
0.0
  0
LINE
  5
130
330
1F
100
AcDbEntity
  8
0
  6
Continuous
 62
     7
100
AcDbLine
 10
2652.8384674277
 20
-2123.6012332174
 30
0.0
 11
2643.737026241
 21
-2130.2138173057
 31
0.0
  0
LINE
  5
131
330
1F
100
AcDbEntity
  8
0
  6
Continuous
 62
     7
100
AcDbLine
 10
2652.0067481948
 20
-2122.2702042105
 30
0.0
 11
2642.0735877751
 21
-2127.5517592918
 31
0.0
  0
LINE
  5
132
330
1F
100
AcDbEntity
  8
0
  6
Continuous
 62
     7
100
AcDbLine
 10
2651.3683666306
 20
-2120.8363757416
 30
0.0
 11
2640.7968246467
 21
-2124.684102354
 31
0.0
  0
LINE
  5
133
330
1F
100
AcDbEntity
  8
0
  6
Continuous
 62
     7
100
AcDbLine
 10
2657.7255844385
 20
-2127.419467493
 30
0.0
 11
2653.5112602626
 21
-2137.8502858569
 31
0.0
  0
LINE
  5
134
330
1F
100
AcDbEntity
  8
0
  6
Continuous
 62
     7
100
AcDbLine
 10
2659.2182872889
 20
-2127.9044760498
 30
0.0
 11
2656.4966659634
 21
-2138.8203029704
 31
0.0
  0
LINE
  5
135
330
1F
100
AcDbEntity
  8
0
  6
Continuous
 62
     7
100
AcDbLine
 10
2671.4804496962
 20
-2122.9502408518
 30
0.0
 11
2681.0209907779
 21
-2128.9118325744
 31
0.0
  0
LINE
  5
136
330
1F
100
AcDbEntity
  8
0
  6
Continuous
 62
     7
100
AcDbLine
 10
2670.5579085995
 20
-2124.2200097381
 30
0.0
 11
2679.1759085846
 21
-2131.4513703471
 31
0.0
  0
LINE
  5
137
330
1F
100
AcDbEntity
  8
0
  6
Continuous
 62
     7
100
AcDbLine
 10
2669.467627936
 20
-2125.3490284158
 30
0.0
 11
2676.9953472575
 21
-2133.7094077024
 31
0.0
  0
LINE
  5
138
330
1F
100
AcDbEntity
  8
0
  6
Continuous
 62
     7
100
AcDbLine
 10
2668.2308287785
 20
-2126.3153218204
 30
0.0
 11
2674.5217489425
 21
-2135.6419945116
 31
0.0
  0
LINE
  5
139
330
1F
100
AcDbEntity
  8
0
  6
Continuous
 62
     7
100
AcDbLine
 10
2666.8715840158
 20
-2127.10008215
 30
0.0
 11
2671.8032594172
 21
-2137.2115151709
 31
0.0
  0
LINE
  5
13A
330
1F
100
AcDbEntity
  8
0
  6
Continuous
 62
     7
100
AcDbLine
 10
2665.4163498011
 20
-2127.6880349375
 30
0.0
 11
2668.8927909878
 21
-2138.3874207458
 31
0.0
  0
LINE
  5
13B
330
1F
100
AcDbEntity
  8
0
  6
Continuous
 62
     7
100
AcDbLine
 10
2663.8934506132
 20
-2128.0677363505
 30
0.0
 11
2665.8469926119
 21
-2139.1468235719
 31
0.0
  0
LINE
  5
13C
330
1F
100
AcDbEntity
  8
0
  6
Continuous
 62
     7
100
AcDbLine
 10
2672.2172950129
 20
-2121.5644363638
 30
0.0
 11
2682.4946814114
 21
-2126.1402235984
 31
0.0
  0
LINE
  5
13D
330
1F
100
AcDbEntity
  8
0
  6
Continuous
 62
     7
100
AcDbLine
 10
2662.3325279523
 20
-2128.2317959331
 30
0.0
 11
2662.7251472902
 21
-2139.4749427371
 31
0.0
  0
LINE
  5
13E
330
1F
100
AcDbEntity
  8
0
  6
Continuous
 62
     7
100
AcDbLine
 10
2650.717313049
 20
-2116.2038887995
 30
0.0
 11
2639.4947174836
 21
-2115.4191284699
 31
0.0
  0
LINE
  5
13F
330
1F
100
AcDbEntity
  8
0
  6
Continuous
 62
     7
100
AcDbLine
 10
2650.9357481062
 20
-2114.6496426075
 30
0.0
 11
2639.9315875979
 21
-2112.3106360858
 31
0.0
  0
LINE
  5
140
330
1F
100
AcDbEntity
  8
0
  6
Continuous
 62
     7
100
AcDbLine
 10
2651.3683666306
 20
-2113.1409225167
 30
0.0
 11
2640.7968246467
 21
-2109.2931959043
 31
0.0
  0
LINE
  5
141
330
1F
100
AcDbEntity
  8
0
  6
Continuous
 62
     7
100
AcDbLine
 10
2652.0067481948
 20
-2111.7070940478
 30
0.0
 11
2642.0735877751
 21
-2106.4255389665
 31
0.0
  0
LINE
  5
142
330
1F
100
AcDbEntity
  8
0
  6
Continuous
 62
     7
100
AcDbLine
 10
2652.8384674277
 20
-2110.3760650409
 30
0.0
 11
2643.737026241
 21
-2103.7634809526
 31
0.0
  0
LINE
  5
143
330
1F
100
AcDbEntity
  8
0
  6
Continuous
 62
     7
100
AcDbLine
 10
2653.8473358606
 20
-2109.1737424615
 30
0.0
 11
2645.7547631068
 21
-2101.3588357938
 31
0.0
  0
LINE
  5
144
330
1F
100
AcDbEntity
  8
0
  6
Continuous
 62
     7
100
AcDbLine
 10
2655.013717017
 20
-2108.1235281511
 30
0.0
 11
2648.0875254196
 21
-2099.258407173
 31
0.0
  0
LINE
  5
145
330
1F
100
AcDbEntity
  8
0
  6
Continuous
 62
     7
100
AcDbLine
 10
2650.717313049
 20
-2117.7734094588
 30
0.0
 11
2639.4947174836
 21
-2118.5581697884
 31
0.0
  0
LINE
  5
146
330
1F
100
AcDbEntity
  8
0
  6
Continuous
 62
     7
100
AcDbLine
 10
2671.4804496962
 20
-2111.0270574065
 30
0.0
 11
2681.0209907779
 21
-2105.0654656839
 31
0.0
  0
LINE
  5
147
330
1F
100
AcDbEntity
  8
0
  6
Continuous
 62
     7
100
AcDbLine
 10
2672.2172950129
 20
-2112.4128618945
 30
0.0
 11
2682.4946814114
 21
-2107.8370746599
 31
0.0
  0
LINE
  5
148
330
1F
100
AcDbEntity
  8
0
  6
Continuous
 62
     7
100
AcDbLine
 10
2672.7541026937
 20
-2113.8877288762
 30
0.0
 11
2683.568296773
 21
-2110.7868086233
 31
0.0
  0
LINE
  5
149
330
1F
100
AcDbEntity
  8
0
  6
Continuous
 62
     7
100
AcDbLine
 10
2673.0804243878
 20
-2115.4229517433
 30
0.0
 11
2684.2209401611
 21
-2113.8572543575
 31
0.0
  0
LINE
  5
14A
330
1F
100
AcDbEntity
  8
0
  6
Continuous
 62
     7
100
AcDbLine
 10
2673.1899086144
 20
-2116.9886491291
 30
0.0
 11
2684.4399086144
 21
-2116.9886491291
 31
0.0
  0
LINE
  5
14B
330
1F
100
AcDbEntity
  8
0
  6
Continuous
 62
     7
100
AcDbLine
 10
2669.4676279359
 20
-2108.6282698425
 30
0.0
 11
2676.9953472575
 21
-2100.2678905559
 31
0.0
  0
LINE
  5
14C
330
1F
100
AcDbEntity
  8
0
  6
Continuous
 62
     7
100
AcDbLine
 10
2670.5579085995
 20
-2109.7572885202
 30
0.0
 11
2679.1759085846
 21
-2102.5259279112
 31
0.0
  0
LINE
  5
14D
330
1F
100
AcDbEntity
  8
0
  6
Continuous
 62
     7
100
AcDbLine
 10
2673.0804243878
 20
-2118.554346515
 30
0.0
 11
2684.2209401611
 21
-2120.1200439008
 31
0.0
  0
ARC
  5
14E
330
1F
100
AcDbEntity
  8
0
  6
Continuous
 62
     7
100
AcDbCircle
 10
2689.4399086144
 20
-2066.9886491292
 30
0.0
 40
15.0
100
AcDbArc
 50
0.0
 51
90.0
  0
LINE
  5
14F
330
1F
100
AcDbEntity
  8
0
  6
Continuous
 62
     7
100
AcDbLine
 10
2549.4399086144
 20
-2051.9886491292
 30
0.0
 11
2689.4399086144
 21
-2051.9886491292
 31
0.0
  0
ARC
  5
150
330
1F
100
AcDbEntity
  8
0
  6
Continuous
 62
     7
100
AcDbCircle
 10
2549.4399086144
 20
-2066.9886491292
 30
0.0
 40
15.0
100
AcDbArc
 50
90.0
 51
180.0
  0
LINE
  5
151
330
1F
100
AcDbEntity
  8
0
  6
Continuous
 62
     7
100
AcDbLine
 10
2726.4399086144
 20
-1839.4886491292
 30
0.0
 11
2248.4399086144
 21
-1839.4886491292
 31
0.0
  0
LINE
  5
152
330
1F
100
AcDbEntity
  8
0
  6
Continuous
 62
     7
100
AcDbLine
 10
2494.4399086144
 20
-1964.4886491292
 30
0.0
 11
2726.4399086144
 21
-1964.4886491292
 31
0.0
  0
LINE
  5
153
330
1F
100
AcDbEntity
  8
0
  6
Continuous
 62
     7
100
AcDbLine
 10
2238.4399086144
 20
-1964.4886491292
 30
0.0
 11
2494.4399086144
 21
-1964.4886491292
 31
0.0
  0
LINE
  5
154
330
1F
100
AcDbEntity
  8
0
  6
Continuous
 62
     7
100
AcDbLine
 10
2228.4399086144
 20
-1849.4886491292
 30
0.0
 11
2228.4399086144
 21
-1911.4886491292
 31
0.0
  0
LINE
  5
155
330
1F
100
AcDbEntity
  8
0
  6
Continuous
 62
     7
100
AcDbLine
 10
2238.4399086144
 20
-1849.4886491292
 30
0.0
 11
2238.4399086144
 21
-1911.4886491292
 31
0.0
  0
ARC
  5
156
330
1F
100
AcDbEntity
  8
0
  6
Continuous
 62
     7
100
AcDbCircle
 10
2248.4399086144
 20
-1849.4886491292
 30
0.0
 40
10.0
100
AcDbArc
 50
90.0
 51
180.0
  0
LINE
  5
157
330
1F
100
AcDbEntity
  8
0
  6
Continuous
 62
     7
100
AcDbLine
 10
2238.4399086144
 20
-1849.4886491292
 30
0.0
 11
2228.4399086144
 21
-1849.4886491292
 31
0.0
  0
LINE
  5
158
330
1F
100
AcDbEntity
  8
0
  6
Continuous
 62
     7
100
AcDbLine
 10
2736.4399086144
 20
-1954.4886491292
 30
0.0
 11
2736.4399086144
 21
-1849.4886491292
 31
0.0
  0
ARC
  5
159
330
1F
100
AcDbEntity
  8
0
  6
Continuous
 62
     7
100
AcDbCircle
 10
2726.4399086144
 20
-1954.4886491292
 30
0.0
 40
10.0
100
AcDbArc
 50
270.0
 51
0.0
  0
ARC
  5
15A
330
1F
100
AcDbEntity
  8
0
  6
Continuous
 62
     7
100
AcDbCircle
 10
2726.4399086144
 20
-1849.4886491292
 30
0.0
 40
10.0
100
AcDbArc
 50
0.0
 51
90.0
  0
LINE
  5
15B
330
1F
100
AcDbEntity
  8
0
  6
Continuous
 62
     7
100
AcDbLine
 10
2238.4399086144
 20
-1918.7886491292
 30
0.0
 11
2238.4399086144
 21
-1924.5228468396
 31
0.0
  0
LINE
  5
15C
330
1F
100
AcDbEntity
  8
0
  6
Continuous
 62
     7
100
AcDbLine
 10
1975.9399086144
 20
-2002.4886491292
 30
0.0
 11
2432.9399086144
 21
-2002.4886491292
 31
0.0
  0
LINE
  5
15D
330
1F
100
AcDbEntity
  8
0
  6
Continuous
 62
     7
100
AcDbLine
 10
1968.4399086144
 20
-1994.4886491292
 30
0.0
 11
2440.4399086144
 21
-1994.4886491292
 31
0.0
  0
LINE
  5
15E
330
1F
100
AcDbEntity
  8
0
  6
HIDDEN2
 62
     7
100
AcDbLine
 10
2009.4399086144
 20
-2254.4886491292
 30
0.0
 11
2399.4399086144
 21
-2254.4886491292
 31
0.0
  0
LINE
  5
15F
330
1F
100
AcDbEntity
  8
0
  6
Continuous
 62
     7
100
AcDbLine
 10
2402.9399086144
 20
-2259.4886491292
 30
0.0
 11
2005.9399086144
 21
-2259.4886491292
 31
0.0
  0
LINE
  5
160
330
1F
100
AcDbEntity
  8
0
  6
Continuous
 62
     7
100
AcDbLine
 10
2402.9399086144
 20
-2265.4886491292
 30
0.0
 11
2005.9399086144
 21
-2265.4886491292
 31
0.0
  0
LINE
  5
161
330
1F
100
AcDbEntity
  8
0
  6
Continuous
 62
     7
100
AcDbLine
 10
1975.9399086144
 20
-2229.4886491292
 30
0.0
 11
1975.9399086144
 21
-2002.4886491292
 31
0.0
  0
LINE
  5
162
330
1F
100
AcDbEntity
  8
0
  6
HIDDEN2
 62
     7
100
AcDbLine
 10
1979.4399086144
 20
-2224.4886491292
 30
0.0
 11
1979.4399086144
 21
-2002.4886491292
 31
0.0
  0
CIRCLE
  5
164
330
1F
100
AcDbEntity
  8
_Translation
  6
Continuous
 62
     7
100
AcDbCircle
 10
1968.4399086144
 20
-1994.4886491292
 30
0.0
 40
0.01
  0
CIRCLE
  5
165
330
1F
100
AcDbEntity
  8
_Translation
  6
Continuous
 62
     7
100
AcDbCircle
 10
2009.4399086144
 20
-2254.4886491292
 30
0.0
 40
0.01
  0
LINE
  5
166
330
1F
100
AcDbEntity
  8
_Translation
  6
Continuous
 62
     7
100
AcDbLine
 10
1920.6647000684
 20
-1994.4886491292
 30
0.0
 11
1920.6647000684
 21
-2254.4886491292
 31
0.0
  0
ARC
  5
167
330
1F
100
AcDbEntity
  8
0
  6
HIDDEN2
 62
     7
100
AcDbCircle
 10
2009.4399086144
 20
-2224.4886491292
 30
0.0
 40
30.0
100
AcDbArc
 50
180.0
 51
270.0
  0
ARC
  5
168
330
1F
100
AcDbEntity
  8
0
  6
Continuous
 62
     7
100
AcDbCircle
 10
2005.9399086144
 20
-2229.4886491292
 30
0.0
 40
30.0
100
AcDbArc
 50
180.0
 51
270.0
  0
LINE
  5
169
330
1F
100
AcDbEntity
  8
0
  6
Continuous
 62
     7
100
AcDbLine
 10
2005.9399086144
 20
-2259.4886491292
 30
0.0
 11
2005.9399086144
 21
-2265.4886491292
 31
0.0
  0
ARC
  5
16A
330
1F
100
AcDbEntity
  8
0
  6
Continuous
 62
     7
100
AcDbCircle
 10
1968.4399086144
 20
-1998.4886491292
 30
0.0
 40
4.0
100
AcDbArc
 50
90.0
 51
180.0
  0
ARC
  5
16B
330
1F
100
AcDbEntity
  8
0
  6
Continuous
 62
     7
100
AcDbCircle
 10
1968.4399086144
 20
-1998.4886491292
 30
0.0
 40
4.0
100
AcDbArc
 50
180.0
 51
270.0
  0
POINT
  5
16C
330
1F
100
AcDbEntity
  8
0
  6
Continuous
 62
     7
100
AcDbPoint
 10
1964.4399086144
 20
-1998.4886491292
 30
0.0
  0
LINE
  5
16D
330
1F
100
AcDbEntity
  8
0
  6
Continuous
 62
     7
100
AcDbLine
 10
1975.9399086144
 20
-2002.4886491292
 30
0.0
 11
1968.4399086144
 21
-2002.4886491292
 31
0.0
  0
LINE
  5
16E
330
1F
100
AcDbEntity
  8
0
  6
Continuous
 62
     7
100
AcDbLine
 10
2432.9399086144
 20
-2002.4886491292
 30
0.0
 11
2432.9399086144
 21
-2229.4886491292
 31
0.0
  0
LINE
  5
16F
330
1F
100
AcDbEntity
  8
0
  6
HIDDEN2
 62
     7
100
AcDbLine
 10
2429.4399086144
 20
-2002.4886491292
 30
0.0
 11
2429.4399086144
 21
-2224.4886491292
 31
0.0
  0
ARC
  5
170
330
1F
100
AcDbEntity
  8
0
  6
HIDDEN2
 62
     7
100
AcDbCircle
 10
2399.4399086144
 20
-2224.4886491292
 30
0.0
 40
30.0
100
AcDbArc
 50
270.0
 51
0.0
  0
ARC
  5
171
330
1F
100
AcDbEntity
  8
0
  6
Continuous
 62
     7
100
AcDbCircle
 10
2402.9399086144
 20
-2229.4886491292
 30
0.0
 40
30.0
100
AcDbArc
 50
270.0
 51
0.0
  0
LINE
  5
172
330
1F
100
AcDbEntity
  8
0
  6
Continuous
 62
     7
100
AcDbLine
 10
2402.9399086144
 20
-2259.4886491292
 30
0.0
 11
2402.9399086144
 21
-2265.4886491292
 31
0.0
  0
ARC
  5
173
330
1F
100
AcDbEntity
  8
0
  6
Continuous
 62
     7
100
AcDbCircle
 10
2440.4399086144
 20
-1998.4886491292
 30
0.0
 40
4.0
100
AcDbArc
 50
0.0
 51
90.0
  0
POINT
  5
174
330
1F
100
AcDbEntity
  8
0
  6
Continuous
 62
     7
100
AcDbPoint
 10
2444.4399086144
 20
-1998.4886491292
 30
0.0
  0
ARC
  5
175
330
1F
100
AcDbEntity
  8
0
  6
Continuous
 62
     7
100
AcDbCircle
 10
2440.4399086144
 20
-1998.4886491292
 30
0.0
 40
4.0
100
AcDbArc
 50
270.0
 51
0.0
  0
LINE
  5
176
330
1F
100
AcDbEntity
  8
0
  6
HIDDEN2
 62
     7
100
AcDbLine
 10
2430.9399086144
 20
-1994.4886491292
 30
0.0
 11
2440.4399086144
 21
-1994.4886491292
 31
0.0
  0
LINE
  5
177
330
1F
100
AcDbEntity
  8
0
  6
Continuous
 62
     7
100
AcDbLine
 10
2440.4399086144
 20
-2002.4886491292
 30
0.0
 11
2432.9399086144
 21
-2002.4886491292
 31
0.0
  0
LINE
  5
178
330
1F
100
AcDbEntity
  8
0
  6
Continuous
 62
     7
100
AcDbLine
 10
256.0835207507
 20
-1891.5289722584
 30
0.0
 11
481.0835207507
 21
-1891.5289722584
 31
0.0
  0
LINE
  5
179
330
1F
100
AcDbEntity
  8
0
  6
Continuous
 62
     7
100
AcDbLine
 10
481.0835207507
 20
-1892.5289722584
 30
0.0
 11
523.5835207507
 21
-1858.5289722584
 31
0.0
  0
LINE
  5
17A
330
1F
100
AcDbEntity
  8
0
  6
HIDDEN2
 62
     7
100
AcDbLine
 10
213.5835207507
 20
-2202.9543058284
 30
0.0
 11
213.5835207507
 21
-2533.5289722584
 31
0.0
  0
LINE
  5
17B
330
1F
100
AcDbEntity
  8
0
  6
HIDDEN2
 62
     7
100
AcDbLine
 10
2768.895595264
 20
-1645.7366855509
 30
0.0
 11
2593.9489482494
 21
-1757.1899915918
 31
0.0
  0
LINE
  5
17C
330
1F
100
AcDbEntity
  8
0
  6
HIDDEN2
 62
     7
100
AcDbLine
 10
2753.2233286063
 20
-1677.5080568045
 30
0.0
 11
2598.3906861982
 21
-1776.1473286849
 31
0.0
  0
LINE
  5
17D
330
1F
100
AcDbEntity
  8
0
  6
HIDDEN2
 62
     7
100
AcDbLine
 10
2740.5362555977
 20
-1703.2277382956
 30
0.0
 11
2601.9863788235
 21
-1791.493744427
 31
0.0
  0
LINE
  5
17E
330
1F
100
AcDbEntity
  8
0
  6
HIDDEN2
 62
     7
100
AcDbLine
 10
2755.2703185371
 20
-1673.3583266816
 30
0.0
 11
2597.8105408335
 21
-1773.6712683299
 31
0.0
  0
LINE
  5
17F
330
1F
100
AcDbEntity
  8
0
  6
HIDDEN2
 62
     7
100
AcDbLine
 10
2742.5832455285
 20
-1699.0780081726
 30
0.0
 11
2601.4062334587
 21
-1789.017684072
 31
0.0
  0
LINE
  5
180
330
1F
100
AcDbEntity
  8
0
  6
HIDDEN2
 62
     7
100
AcDbLine
 10
2766.8486053332
 20
-1649.8864156738
 30
0.0
 11
2594.4899737413
 21
-1759.6909740545
 31
0.0
  0
LINE
  5
181
330
1F
100
AcDbEntity
  8
0
  6
HIDDEN2
 62
     7
100
AcDbLine
 10
2779.706260836
 20
-1623.8209233392
 30
0.0
 11
2590.8850555419
 21
-1744.1132978419
 31
0.0
  0
LINE
  5
182
330
1F
100
AcDbEntity
  8
0
  6
HIDDEN2
 62
     7
100
AcDbLine
 10
2797.0141805828
 20
-1608.5260818213
 30
0.0
 11
2408.8010980751
 21
-1855.8450915433
 31
0.0
  0
LINE
  5
183
330
1F
100
AcDbEntity
  8
0
  6
HIDDEN2
 62
     7
100
AcDbLine
 10
2446.2627621535
 20
-1906.677789427
 30
0.0
 11
2717.1477562448
 21
-1734.1050155924
 31
0.0
  0
LINE
  5
184
330
1F
100
AcDbEntity
  8
0
  6
HIDDEN2
 62
     7
100
AcDbLine
 10
2448.9492601952
 20
-1910.8947466561
 30
0.0
 11
2719.8342542866
 21
-1738.3219728215
 31
0.0
  0
LINE
  5
185
330
1F
100
AcDbEntity
  8
0
  6
HIDDEN2
 62
     7
100
AcDbLine
 10
2767.853846691
 20
-1665.3417351187
 30
0.0
 11
2749.0184294224
 21
-1677.3412193104
 31
0.0
  0
LINE
  5
186
330
1F
100
AcDbEntity
  8
0
  6
HIDDEN2
 62
     7
100
AcDbLine
 10
2769.143365751
 20
-1667.3658745887
 30
0.0
 11
2746.5108425024
 21
-1681.7843820774
 31
0.0
  0
LINE
  5
187
330
1F
100
AcDbEntity
  8
0
  6
HIDDEN2
 62
     7
100
AcDbLine
 10
2718.5575304049
 20
-1733.7143794825
 30
0.0
 11
2769.5855879226
 21
-1630.2685030717
 31
0.0
  0
LINE
  5
188
330
1F
100
AcDbEntity
  8
0
  6
HIDDEN2
 62
     7
100
AcDbLine
 10
2720.1123563032
 20
-1734.3105436523
 30
0.0
 11
2774.4875343448
 21
-1627.145618786
 31
0.0
  0
LINE
  5
189
330
1F
100
AcDbEntity
  8
0
  6
HIDDEN2
 62
     7
100
AcDbLine
 10
2798.9484591728
 20
-1611.5622910262
 30
0.0
 11
2774.4875343448
 21
-1627.145618786
 31
0.0
  0
ARC
  5
18A
330
1F
100
AcDbEntity
  8
0
  6
HIDDEN2
 62
     7
100
AcDbCircle
 10
2797.9813198778
 20
-1610.0441864238
 30
0.0
 40
1.8
100
AcDbArc
 50
302.5
 51
122.5
  0
LINE
  5
18B
330
1F
100
AcDbEntity
  8
0
  6
HIDDEN2
 62
     7
100
AcDbLine
 10
2782.3488481474
 20
-1637.1660182277
 30
0.0
 11
2763.2197889734
 21
-1649.3525729447
 31
0.0
  0
LINE
  5
18C
330
1F
100
AcDbEntity
  8
0
  6
HIDDEN2
 62
     7
100
AcDbLine
 10
2783.6383672075
 20
-1639.1901576977
 30
0.0
 11
2761.2597442536
 21
-1653.4469128594
 31
0.0
  0
ARC
  5
18D
330
1F
100
AcDbEntity
  8
0
  6
HIDDEN2
 62
     7
100
AcDbCircle
 10
2782.9936076774
 20
-1638.1780879627
 30
0.0
 40
1.2
100
AcDbArc
 50
302.5
 51
122.5
  0
ARC
  5
18E
330
1F
100
AcDbEntity
  8
0
  6
HIDDEN2
 62
     7
100
AcDbCircle
 10
2768.498606221
 20
-1666.3538048537
 30
0.0
 40
1.2
100
AcDbArc
 50
302.5
 51
122.5
  0
LINE
  5
18F
330
1F
100
AcDbEntity
  8
0
  6
HIDDEN2
 62
     7
100
AcDbLine
 10
2752.7678156654
 20
-1692.5897214193
 30
0.0
 11
2735.7949412646
 21
-1703.4026349405
 31
0.0
  0
LINE
  5
190
330
1F
100
AcDbEntity
  8
0
  6
HIDDEN2
 62
     7
100
AcDbLine
 10
2754.0573347254
 20
-1694.6138608893
 30
0.0
 11
2736.7169755601
 21
-1705.6608880252
 31
0.0
  0
ARC
  5
191
330
1F
100
AcDbEntity
  8
0
  6
HIDDEN2
 62
     7
100
AcDbCircle
 10
2753.4125751954
 20
-1693.6017911543
 30
0.0
 40
1.2
100
AcDbArc
 50
302.5
 51
122.5
  0
LINE
  5
192
330
1F
100
AcDbEntity
  8
0
  6
HIDDEN2
 62
     7
100
AcDbLine
 10
2739.317761641
 20
-1701.1583508445
 30
0.0
 11
2737.6773749842
 21
-1702.2033923998
 31
0.0
  0
LINE
  5
193
330
1F
100
AcDbEntity
  8
0
  6
HIDDEN2
 62
     7
100
AcDbLine
 10
2736.7169755601
 20
-1705.6608880252
 30
0.0
 11
2733.6210772245
 21
-1707.6331927853
 31
0.0
  0
POINT
  5
194
330
1F
100
AcDbEntity
  8
0
  6
HIDDEN2
 62
     7
100
AcDbPoint
 10
2720.5994838802
 20
-1734.8702451861
 30
0.0
  0
ARC
  5
195
330
1F
100
AcDbEntity
  8
0
  6
HIDDEN2
 62
     7
100
AcDbCircle
 10
2718.4910052657
 20
-1736.2134942069
 30
0.0
 40
2.5
100
AcDbArc
 50
32.5
 51
122.5
  0
ARC
  5
196
330
1F
100
AcDbEntity
  8
0
  6
HIDDEN2
 62
     7
100
AcDbCircle
 10
2718.4910052657
 20
-1736.2134942069
 30
0.0
 40
2.5
100
AcDbArc
 50
302.5
 51
32.5
  0
CIRCLE
  5
197
330
1F
100
AcDbEntity
  8
0
  6
Continuous
 62
     7
100
AcDbCircle
 10
2439.4399086144
 20
-1913.9886491292
 30
0.0
 40
3.75
  0
CIRCLE
  5
198
330
1F
100
AcDbEntity
  8
0
  6
Continuous
 62
     7
100
AcDbCircle
 10
2439.4399086144
 20
-1913.9886491292
 30
0.0
 40
7.5
  0
CIRCLE
  5
199
330
1F
100
AcDbEntity
  8
0
  6
Continuous
 62
     7
100
AcDbCircle
 10
2439.4399086144
 20
-1913.9886491292
 30
0.0
 40
7.5
  0
CIRCLE
  5
19A
330
1F
100
AcDbEntity
  8
0
  6
Continuous
 62
     7
100
AcDbCircle
 10
2439.4399086144
 20
-1913.9886491292
 30
0.0
 40
10.0
  0
ARC
  5
19B
330
1F
100
AcDbEntity
  8
0
  6
HIDDEN2
 62
     7
100
AcDbCircle
 10
2412.9074886505
 20
-1861.9688068865
 30
0.0
 40
7.373081659759248
100
AcDbArc
 50
123.8446891056
 51
212.7249601003
  0
LINE
  5
19C
330
1F
100
AcDbEntity
  8
0
  6
HIDDEN2
 62
     7
100
AcDbLine
 10
2599.1050156608
 20
-1790.4837214947
 30
0.0
 11
2431.0851329135
 21
-1897.5241920173
 31
0.0
  0
LINE
  5
19D
330
1F
100
AcDbEntity
  8
0
  6
HIDDEN2
 62
     7
100
AcDbLine
 10
2599.6851610255
 20
-1792.9597818497
 30
0.0
 11
2432.3746519736
 21
-1899.5483314873
 31
0.0
  0
LINE
  5
19E
330
1F
100
AcDbEntity
  8
0
  6
HIDDEN2
 62
     7
100
AcDbLine
 10
2591.6477304515
 20
-1758.6560290145
 30
0.0
 11
2414.509439996
 21
-1871.505565914
 31
0.0
  0
LINE
  5
19F
330
1F
100
AcDbEntity
  8
0
  6
HIDDEN2
 62
     7
100
AcDbLine
 10
2592.2278758163
 20
-1761.1320893695
 30
0.0
 11
2415.7989590561
 21
-1873.5297053839
 31
0.0
  0
LINE
  5
1A0
330
1F
100
AcDbEntity
  8
0
  6
HIDDEN2
 62
     7
100
AcDbLine
 10
2588.583837744
 20
-1745.5793352646
 30
0.0
 11
2410.7353766652
 21
-1858.8813007483
 31
0.0
  0
LINE
  5
1A1
330
1F
100
AcDbEntity
  8
0
  6
HIDDEN2
 62
     7
100
AcDbLine
 10
2595.5093230356
 20
-1775.1373057526
 30
0.0
 11
2423.0928012394
 21
-1884.9787442609
 31
0.0
  0
LINE
  5
1A2
330
1F
100
AcDbEntity
  8
0
  6
HIDDEN2
 62
     7
100
AcDbLine
 10
2596.0894684003
 20
-1777.6133661076
 30
0.0
 11
2424.3823202994
 21
-1887.0028837308
 31
0.0
  0
LINE
  5
1A3
330
1F
100
AcDbEntity
  8
0
  6
HIDDEN2
 62
     7
100
AcDbLine
 10
2602.9424355213
 20
-1806.8618290513
 30
0.0
 11
2588.583837744
 21
-1745.5793352646
 31
0.0
  0
LINE
  5
1A4
330
1F
100
AcDbEntity
  8
0
  6
HIDDEN2
 62
     7
100
AcDbLine
 10
2605.2436533192
 20
-1805.3957916286
 30
0.0
 11
2590.8850555419
 21
-1744.1132978419
 31
0.0
  0
LINE
  5
1A5
330
1F
100
AcDbEntity
  8
0
  6
HIDDEN2
 62
     7
100
AcDbLine
 10
2435.6727763729
 20
-1904.7253497885
 30
0.0
 11
2409.7409059719
 21
-1864.0204668324
 31
0.0
  0
ARC
  5
1A6
330
1F
100
AcDbEntity
  8
0
  6
HIDDEN2
 62
     7
100
AcDbCircle
 10
2412.9096207057
 20
-1861.9678369136
 30
0.0
 40
3.775452641399521
100
AcDbArc
 50
125.1619576528
 51
212.9343577451
  0
LINE
  5
1A7
330
1F
100
AcDbEntity
  8
0
  6
HIDDEN2
 62
     7
100
AcDbLine
 10
2432.636567168
 20
-1906.6596283785
 30
0.0
 11
2406.704696767
 21
-1865.9547454225
 31
0.0
  0
LINE
  5
1A8
330
1F
100
AcDbEntity
  8
0
  6
Continuous
 62
     7
100
AcDbLine
 10
2072.2560703575
 20
-1929.9636491292
 30
0.0
 11
2080.4075069797
 21
-1929.9636491292
 31
0.0
  0
LINE
  5
1A9
330
1F
100
AcDbEntity
  8
0
  6
Continuous
 62
     7
100
AcDbLine
 10
2068.3000081904
 20
-1932.3636491292
 30
0.0
 11
2076.3488262068
 21
-1932.3636491292
 31
0.0
  0
LINE
  5
1AA
330
1F
100
AcDbEntity
  8
0
  6
Continuous
 62
     7
100
AcDbLine
 10
2107.1731995446
 20
-1916.0606371786
 30
0.0
 11
2008.555143457
 21
-1975.8886491292
 31
0.0
  0
LINE
  5
1AB
330
1F
100
AcDbEntity
  8
0
  6
Continuous
 62
     7
100
AcDbLine
 10
2106.1821914572
 20
-1914.7224300713
 30
0.0
 11
2002.7429592731
 21
-1975.8886491292
 31
0.0
  0
LINE
  5
1AC
330
1F
100
AcDbEntity
  8
0
  6
Continuous
 62
     7
100
AcDbLine
 10
2017.4481257509
 20
-1963.2136491292
 30
0.0
 11
2024.177867105
 21
-1963.2136491292
 31
0.0
  0
LINE
  5
1AD
330
1F
100
AcDbEntity
  8
0
  6
Continuous
 62
     7
100
AcDbLine
 10
2021.404187918
 20
-1960.8136491292
 30
0.0
 11
2028.2365478779
 21
-1960.8136491292
 31
0.0
  0
LINE
  5
1AE
330
1F
100
AcDbEntity
  8
0
  6
Continuous
 62
     7
100
AcDbLine
 10
1996.5551724309
 20
-1975.8886491292
 30
0.0
 11
2220.4384074715
 21
-1975.8886491292
 31
0.0
  0
LINE
  5
1AF
330
1F
100
AcDbEntity
  8
0
  6
Continuous
 62
     7
100
AcDbLine
 10
1973.7399086144
 20
-1979.4886491292
 30
0.0
 11
2434.0399086144
 21
-1979.4886491292
 31
0.0
  0
LINE
  5
1B0
330
1F
100
AcDbEntity
  8
0
  6
Continuous
 62
     7
100
AcDbLine
 10
2047.7367267177
 20
-1944.8386491292
 30
0.0
 11
2055.2521417726
 21
-1944.8386491292
 31
0.0
  0
LINE
  5
1B1
330
1F
100
AcDbEntity
  8
0
  6
Continuous
 62
     7
100
AcDbLine
 10
2043.7806645506
 20
-1947.2386491292
 30
0.0
 11
2051.1934609997
 21
-1947.2386491292
 31
0.0
  0
LINE
  5
1B2
330
1F
100
AcDbEntity
  8
0
  6
Continuous
 62
     7
100
AcDbLine
 10
2001.4967511547
 20
-1963.2136491292
 30
0.0
 11
2024.177867105
 21
-1963.2136491292
 31
0.0
  0
LINE
  5
1B3
330
1F
100
AcDbEntity
  8
0
  6
Continuous
 62
     7
100
AcDbLine
 10
2001.4967511547
 20
-1960.8136491292
 30
0.0
 11
2028.0308392877
 21
-1960.8136491292
 31
0.0
  0
LINE
  5
1B4
330
1F
100
AcDbEntity
  8
0
  6
Continuous
 62
     7
100
AcDbLine
 10
1973.7399086144
 20
-1975.8886491292
 30
0.0
 11
2002.7429592731
 21
-1975.8886491292
 31
0.0
  0
ARC
  5
1B5
330
1F
100
AcDbEntity
  8
0
  6
Continuous
 62
     7
100
AcDbCircle
 10
1973.7399086144
 20
-1977.6886491292
 30
0.0
 40
1.8
100
AcDbArc
 50
90.0
 51
270.0
  0
ARC
  5
1B6
330
1F
100
AcDbEntity
  8
0
  6
Continuous
 62
     7
100
AcDbCircle
 10
2001.4967511547
 20
-1962.0136491292
 30
0.0
 40
1.2
100
AcDbArc
 50
90.0
 51
270.0
  0
LINE
  5
1B7
330
1F
100
AcDbEntity
  8
0
  6
Continuous
 62
     7
100
AcDbLine
 10
2028.8605130405
 20
-1944.8386491292
 30
0.0
 11
2055.6956479722
 21
-1944.8386491292
 31
0.0
  0
ARC
  5
1B8
330
1F
100
AcDbEntity
  8
0
  6
Continuous
 62
     7
100
AcDbCircle
 10
2028.8605130405
 20
-1946.0386491292
 30
0.0
 40
1.2
100
AcDbArc
 50
90.0
 51
270.0
  0
LINE
  5
1B9
330
1F
100
AcDbEntity
  8
0
  6
Continuous
 62
     7
100
AcDbLine
 10
2028.8605130405
 20
-1947.2386491292
 30
0.0
 11
2051.1934609997
 21
-1947.2386491292
 31
0.0
  0
LINE
  5
1BA
330
1F
100
AcDbEntity
  8
0
  6
Continuous
 62
     7
100
AcDbLine
 10
2072.1718566704
 20
-1932.3636491292
 30
0.0
 11
2074.116845163
 21
-1932.3636491292
 31
0.0
  0
LINE
  5
1BB
330
1F
100
AcDbEntity
  8
0
  6
Continuous
 62
     7
100
AcDbLine
 10
2076.7845488672
 20
-1929.9636491292
 30
0.0
 11
2080.4553216157
 21
-1929.9636491292
 31
0.0
  0
ARC
  5
1BC
330
1F
100
AcDbEntity
  8
0
  6
Continuous
 62
     7
100
AcDbCircle
 10
2056.2242749263
 20
-1931.1636491292
 30
0.0
 40
1.2
100
AcDbArc
 50
90.0
 51
270.0
  0
LINE
  5
1BD
330
1F
100
AcDbEntity
  8
0
  6
Continuous
 62
     7
100
AcDbLine
 10
2056.2242749263
 20
-1932.3636491292
 30
0.0
 11
2076.3488262068
 21
-1932.3636491292
 31
0.0
  0
LINE
  5
1BE
330
1F
100
AcDbEntity
  8
0
  6
Continuous
 62
     7
100
AcDbLine
 10
2056.2242749263
 20
-1929.9636491292
 30
0.0
 11
2076.7845488672
 21
-1929.9636491292
 31
0.0
  0
LINE
  5
1BF
330
1F
100
AcDbEntity
  8
0
  6
Continuous
 62
     7
100
AcDbLine
 10
2429.7574502489
 20
-1916.4886491292
 30
0.0
 11
2108.5720796405
 21
-1916.4886491292
 31
0.0
  0
LINE
  5
1C0
330
1F
100
AcDbEntity
  8
0
  6
Continuous
 62
     7
100
AcDbLine
 10
2429.7574502489
 20
-1911.4886491292
 30
0.0
 11
2108.5720796405
 21
-1911.4886491292
 31
0.0
  0
LINE
  5
1C1
330
1F
100
AcDbEntity
  8
0
  6
Continuous
 62
     7
100
AcDbLine
 10
2234.048623745
 20
-1944.8386491292
 30
0.0
 11
2437.6399086144
 21
-1944.8386491292
 31
0.0
  0
LINE
  5
1C2
330
1F
100
AcDbEntity
  8
0
  6
Continuous
 62
     7
100
AcDbLine
 10
2233.207527124
 20
-1947.2386491292
 30
0.0
 11
2437.6399086144
 21
-1947.2386491292
 31
0.0
  0
LINE
  5
1C3
330
1F
100
AcDbEntity
  8
0
  6
Continuous
 62
     7
100
AcDbLine
 10
2223.1669362102
 20
-1975.8886491292
 30
0.0
 11
2434.0399086144
 21
-1975.8886491292
 31
0.0
  0
LINE
  5
1C4
330
1F
100
AcDbEntity
  8
0
  6
Continuous
 62
     7
100
AcDbLine
 10
2228.4500743612
 20
-1960.8136491292
 30
0.0
 11
2437.6399086144
 21
-1960.8136491292
 31
0.0
  0
LINE
  5
1C5
330
1F
100
AcDbEntity
  8
0
  6
Continuous
 62
     7
100
AcDbLine
 10
2227.6089777401
 20
-1963.2136491292
 30
0.0
 11
2437.6399086144
 21
-1963.2136491292
 31
0.0
  0
LINE
  5
1C6
330
1F
100
AcDbEntity
  8
0
  6
Continuous
 62
     7
100
AcDbLine
 10
2239.2616705109
 20
-1929.9636491292
 30
0.0
 11
2437.6399086144
 21
-1929.9636491292
 31
0.0
  0
LINE
  5
1C7
330
1F
100
AcDbEntity
  8
0
  6
Continuous
 62
     7
100
AcDbLine
 10
2238.4205738898
 20
-1932.3636491292
 30
0.0
 11
2437.6399086144
 21
-1932.3636491292
 31
0.0
  0
POINT
  5
1C8
330
1F
100
AcDbEntity
  8
0
  6
Continuous
 62
     7
100
AcDbPoint
 10
2106.0720796405
 20
-1913.9886491292
 30
0.0
  0
ARC
  5
1C9
330
1F
100
AcDbEntity
  8
0
  6
Continuous
 62
     7
100
AcDbCircle
 10
2108.5720796405
 20
-1913.9886491292
 30
0.0
 40
2.5
100
AcDbArc
 50
180.0
 51
270.0
  0
ARC
  5
1CA
330
1F
100
AcDbEntity
  8
0
  6
Continuous
 62
     7
100
AcDbCircle
 10
2108.5720796405
 20
-1913.9886491292
 30
0.0
 40
2.5
100
AcDbArc
 50
90.0
 51
180.0
  0
LINE
  5
1CB
330
1F
100
AcDbEntity
  8
0
  6
Continuous
 62
     7
100
AcDbLine
 10
2241.2555488424
 20
-1916.4886491292
 30
0.0
 11
2220.4384074715
 21
-1975.8886491292
 31
0.0
  0
LINE
  5
1CC
330
1F
100
AcDbEntity
  8
0
  6
Continuous
 62
     7
100
AcDbLine
 10
2243.9840775811
 20
-1916.4886491292
 30
0.0
 11
2223.1669362102
 21
-1975.8886491292
 31
0.0
  0
CIRCLE
  5
1CD
330
1F
100
AcDbEntity
  8
0
  6
Continuous
 62
     7
100
AcDbCircle
 10
2439.4399086144
 20
-1913.9886491292
 30
0.0
 40
7.5
  0
CIRCLE
  5
1CE
330
1F
100
AcDbEntity
  8
0
  6
Continuous
 62
     7
100
AcDbCircle
 10
2439.4399086144
 20
-1913.9886491292
 30
0.0
 40
7.5
  0
CIRCLE
  5
1CF
330
1F
100
AcDbEntity
  8
0
  6
Continuous
 62
     7
100
AcDbCircle
 10
2439.4399086144
 20
-1913.9886491292
 30
0.0
 40
10.0
  0
LINE
  5
1D0
330
1F
100
AcDbEntity
  8
0
  6
Continuous
 62
     7
100
AcDbLine
 10
2441.2399086144
 20
-1923.825315231
 30
0.0
 11
2441.2399086144
 21
-1972.0886491292
 31
0.0
  0
LINE
  5
1D1
330
1F
100
AcDbEntity
  8
0
  6
Continuous
 62
     7
100
AcDbLine
 10
2437.6399086144
 20
-1923.825315231
 30
0.0
 11
2437.6399086144
 21
-1972.0886491292
 31
0.0
  0
ARC
  5
1D2
330
1F
100
AcDbEntity
  8
0
  6
Continuous
 62
     7
100
AcDbCircle
 10
2433.8645644623
 20
-1972.1172704587
 30
0.0
 40
3.775452641399521
100
AcDbArc
 50
272.6619576528
 51
0.4343577451
  0
ARC
  5
1D3
330
1F
100
AcDbEntity
  8
0
  6
Continuous
 62
     7
100
AcDbCircle
 10
2433.8668837855
 20
-1972.1175979443
 30
0.0
 40
7.373081659759247
100
AcDbArc
 50
271.3446891056
 51
0.2249601003
  0
CIRCLE
  5
1D4
330
1F
100
AcDbEntity
  8
0
  6
Continuous
 62
     7
100
AcDbCircle
 10
2439.4399086144
 20
-1913.9886491292
 30
0.0
 40
3.75
  0
LINE
  5
1D5
330
1F
100
AcDbEntity
  8
0
  6
Continuous
 62
     7
100
AcDbLine
 10
2238.4399086144
 20
-1916.4886491292
 30
0.0
 11
2238.4399086144
 21
-1918.7886491292
 31
0.0
  0
LINE
  5
1D6
330
1F
100
AcDbEntity
  8
0
  6
Continuous
 62
     7
100
AcDbLine
 10
2228.4399086144
 20
-1916.4886491292
 30
0.0
 11
2228.4399086144
 21
-1929.9636491292
 31
0.0
  0
LINE
  5
1D7
330
1F
100
AcDbEntity
  8
0
  6
Continuous
 62
     7
100
AcDbLine
 10
2228.4399086144
 20
-1932.3636491292
 30
0.0
 11
2228.4399086144
 21
-1944.8386491292
 31
0.0
  0
LINE
  5
1D8
330
1F
100
AcDbEntity
  8
0
  6
Continuous
 62
     7
100
AcDbLine
 10
2238.4399086144
 20
-1932.3084790834
 30
0.0
 11
2238.4399086144
 21
-1944.8386491292
 31
0.0
  0
LINE
  5
1D9
330
1F
100
AcDbEntity
  8
0
  6
Continuous
 62
     7
100
AcDbLine
 10
2228.4399086144
 20
-1947.2386491292
 30
0.0
 11
2228.4399086144
 21
-1953.0570240072
 31
0.0
  0
LINE
  5
1DA
330
1F
100
AcDbEntity
  8
0
  6
Continuous
 62
     7
100
AcDbLine
 10
2228.4399086144
 20
-1963.2136491292
 30
0.0
 11
2228.4399086144
 21
-1975.8886491292
 31
0.0
  0
LINE
  5
1DB
330
1F
100
AcDbEntity
  8
0
  6
Continuous
 62
     7
100
AcDbLine
 10
2238.4399086144
 20
-1947.2386491292
 30
0.0
 11
2238.4399086144
 21
-1960.8136491292
 31
0.0
  0
LINE
  5
1DC
330
1F
100
AcDbEntity
  8
0
  6
Continuous
 62
     7
100
AcDbLine
 10
2238.4399086144
 20
-1963.2136491292
 30
0.0
 11
2238.4399086144
 21
-1975.8886491292
 31
0.0
  0
LINE
  5
1DD
330
1F
100
AcDbEntity
  8
0
  6
Continuous
 62
     7
100
AcDbLine
 10
213.5835207507
 20
-2143.5289722584
 30
0.0
 11
213.5835207507
 21
-2163.5289722584
 31
0.0
  0
HATCH
  5
1DE
330
1F
100
AcDbEntity
  8
0
  6
Continuous
 62
   150
100
AcDbHatch
 10
0.0
 20
0.0
 30
0.0
210
0.0
220
0.0
230
1.0
  2
SOLID
 70
     1
 71
     0
 91
        1
 92
        1
 93
        4
 72
     1
 10
2353.624443177274
 20
-1964.488649129157
 11
2332.624443177274
 21
-1964.488649129157
 72
     2
 10
2373.14044782566
 20
-1985.188649129157
 40
45.4976552436278
 50
152.937092461074
 51
168.205262847415
 73
     1
 72
     1
 10
2328.603422412325
 20
-1975.888649129157
 11
2349.603422412325
 21
-1975.888649129157
 72
     2
 10
2394.14044782566
 20
-1985.188649129157
 40
45.4976552436278
 50
191.7947371525849
 51
207.062907538926
 73
     0
 97
        0
 75
     0
 76
     1
 98
        0
  0
HATCH
  5
1DF
330
1F
100
AcDbEntity
  8
0
  6
Continuous
 62
   150
100
AcDbHatch
 10
0.0
 20
0.0
 30
0.0
210
0.0
220
0.0
230
1.0
  2
SOLID
 70
     1
 71
     0
 91
        1
 92
        1
 93
        4
 72
     1
 10
2349.001256066525
 20
-1979.488649129157
 11
2328.001256066525
 21
-1979.488649129157
 72
     2
 10
2373.14044782566
 20
-1985.188649129157
 40
45.49765524362758
 50
172.8030060629644
 51
191.7947371525851
 73
     1
 72
     1
 10
2328.603422412326
 20
-1994.488649129157
 11
2349.603422412325
 21
-1994.488649129157
 72
     2
 10
2394.14044782566
 20
-1985.188649129157
 40
45.49765524362758
 50
168.205262847415
 51
187.1969939370356
 73
     0
 97
        0
 75
     0
 76
     1
 98
        0
  0
LINE
  5
1E0
330
1F
100
AcDbEntity
  8
0
  6
Continuous
 62
     7
100
AcDbLine
 10
2087.3774086144
 20
-2519.4886491292
 30
0.0
 11
2078.0024086144
 21
-2569.4886491292
 31
0.0
  0
LINE
  5
1E1
330
1F
100
AcDbEntity
  8
0
  6
Continuous
 62
     7
100
AcDbLine
 10
2003.2586217909
 20
-2537.9281150341
 30
0.0
 11
2003.2586217909
 21
-2532.7223305013
 31
0.0
  0
ARC
  5
1E2
330
1F
100
AcDbEntity
  8
0
  6
Continuous
 62
     7
100
AcDbCircle
 10
2066.7524086144
 20
-2569.4886491292
 30
0.0
 40
30.00000000000001
100
AcDbArc
 50
122.0626651607
 51
57.7524564754
  0
LINE
  5
1E3
330
1F
100
AcDbEntity
  8
0
  6
Continuous
 62
     7
100
AcDbLine
 10
2044.1200751942
 20
-2539.8080252782
 30
0.0
 11
2003.2586217909
 21
-2537.9281150341
 31
0.0
  0
LINE
  5
1E4
330
1F
100
AcDbEntity
  8
0
  6
Continuous
 62
     7
100
AcDbLine
 10
2051.7524086144
 20
-2569.4886491292
 30
0.0
 11
2051.7524086144
 21
-2547.7995721426
 31
0.0
  0
ARC
  5
1E5
330
1F
100
AcDbEntity
  8
0
  6
Continuous
 62
     7
100
AcDbCircle
 10
2064.8774086144
 20
-2565.8753678792
 30
0.0
 40
13.61328125000019
100
AcDbArc
 50
195.392103444
 51
344.607896556
  0
ARC
  5
1E6
330
1F
100
AcDbEntity
  8
0
  6
Continuous
 62
     7
100
AcDbCircle
 10
2043.7524086144
 20
-2547.7995721426
 30
0.0
 40
8.0
100
AcDbArc
 50
0.0
 51
87.3658542407
  0
LINE
  5
1E7
330
1F
100
AcDbEntity
  8
0
  6
Continuous
 62
     7
100
AcDbLine
 10
2057.2524086144
 20
-2519.4886491292
 30
0.0
 11
2097.2524086144
 21
-2519.4886491292
 31
0.0
  0
ARC
  5
1E8
330
1F
100
AcDbEntity
  8
0
  6
Continuous
 62
     7
100
AcDbCircle
 10
2089.2524086144
 20
-2517.4886491292
 30
0.0
 40
8.0
100
AcDbArc
 50
0.0
 51
90.0
  0
LINE
  5
1E9
330
1F
100
AcDbEntity
  8
0
  6
Continuous
 62
     7
100
AcDbLine
 10
2003.2586217909
 20
-2532.7223305013
 30
0.0
 11
2053.1849227406
 21
-2530.3469342768
 31
0.0
  0
LINE
  5
1EA
330
1F
100
AcDbEntity
  8
0
  6
Continuous
 62
     7
100
AcDbLine
 10
2057.2524086144
 20
-2517.4886491292
 30
0.0
 11
2057.2524086144
 21
-2519.4886491292
 31
0.0
  0
ARC
  5
1EB
330
1F
100
AcDbEntity
  8
0
  6
Continuous
 62
     7
100
AcDbCircle
 10
2065.2524086144
 20
-2517.4886491292
 30
0.0
 40
8.0
100
AcDbArc
 50
90.0
 51
180.0
  0
ARC
  5
1EC
330
1F
100
AcDbEntity
  8
0
  6
Continuous
 62
     7
100
AcDbCircle
 10
2052.8047283858
 20
-2522.3559736179
 30
0.0
 40
8.0
100
AcDbArc
 50
272.7239675212
 51
342.1636034415
  0
LINE
  5
1ED
330
1F
100
AcDbEntity
  8
0
  6
Continuous
 62
     7
100
AcDbLine
 10
2062.1312702203
 20
-2519.4886491292
 30
0.0
 11
2060.4202084724
 21
-2524.8063742076
 31
0.0
  0
LINE
  5
1EE
330
1F
100
AcDbEntity
  8
0
  6
Continuous
 62
     7
100
AcDbLine
 10
2097.2524086144
 20
-2519.4886491292
 30
0.0
 11
2097.2524086144
 21
-2517.4886491292
 31
0.0
  0
ARC
  5
1EF
330
1F
100
AcDbEntity
  8
0
  6
Continuous
 62
     7
100
AcDbCircle
 10
2757.0612618771
 20
-2538.3555873806
 30
0.0
 40
8.0
100
AcDbArc
 50
346.8486218671
 51
90.3981123064
  0
LINE
  5
1F0
330
1F
100
AcDbEntity
  8
0
  6
Continuous
 62
     7
100
AcDbLine
 10
2722.3774086144
 20
-2519.4886491292
 30
0.0
 11
2731.7524086144
 21
-2569.4886491292
 31
0.0
  0
ARC
  5
1F1
330
1F
100
AcDbEntity
  8
0
  6
Continuous
 62
     7
100
AcDbCircle
 10
2743.0024086144
 20
-2569.4886491292
 30
0.0
 40
30.0
100
AcDbArc
 50
122.2475435246
 51
47.7124988693
  0
LINE
  5
1F2
330
1F
100
AcDbEntity
  8
0
  6
Continuous
 62
     7
100
AcDbLine
 10
2758.0024086144
 20
-2569.4886491292
 30
0.0
 11
2764.8514405452
 21
-2540.1757841611
 31
0.0
  0
ARC
  5
1F3
330
1F
100
AcDbEntity
  8
0
  6
Continuous
 62
     7
100
AcDbCircle
 10
2744.8774086144
 20
-2565.8753678792
 30
0.0
 40
13.61328125000019
100
AcDbArc
 50
195.392103444
 51
344.607896556
  0
ARC
  5
1F4
330
1F
100
AcDbEntity
  8
0
  6
Continuous
 62
     7
100
AcDbCircle
 10
2720.5024086144
 20
-2517.4886491292
 30
0.0
 40
8.0
100
AcDbArc
 50
90.0
 51
180.0
  0
LINE
  5
1F5
330
1F
100
AcDbEntity
  8
0
  6
Continuous
 62
     7
100
AcDbLine
 10
2752.5024086144
 20
-2519.4886491292
 30
0.0
 11
2712.5024086144
 21
-2519.4886491292
 31
0.0
  0
LINE
  5
1F6
330
1F
100
AcDbEntity
  8
0
  6
Continuous
 62
     7
100
AcDbLine
 10
2712.5024086144
 20
-2519.4886491292
 30
0.0
 11
2712.5024086144
 21
-2517.4886491292
 31
0.0
  0
LINE
  5
1F7
330
1F
100
AcDbEntity
  8
0
  6
Continuous
 62
     7
100
AcDbLine
 10
2752.5024086144
 20
-2517.4886491292
 30
0.0
 11
2752.5024086144
 21
-2519.4886491292
 31
0.0
  0
ARC
  5
1F8
330
1F
100
AcDbEntity
  8
0
  6
Continuous
 62
     7
100
AcDbCircle
 10
2744.5024086144
 20
-2517.4886491292
 30
0.0
 40
8.0
100
AcDbArc
 50
0.0
 51
90.0
  0
ARC
  5
1F9
330
1F
100
AcDbEntity
  8
0
  6
Continuous
 62
     7
100
AcDbCircle
 10
2756.9500888431
 20
-2522.3559736179
 30
0.0
 40
8.0
100
AcDbArc
 50
197.8363965585
 51
270.3981123064
  0
LINE
  5
1FA
330
1F
100
AcDbEntity
  8
0
  6
Continuous
 62
     7
100
AcDbLine
 10
2747.6235470085
 20
-2519.4886491292
 30
0.0
 11
2749.3346087564
 21
-2524.8063742076
 31
0.0
  0
CIRCLE
  5
1FB
330
1F
100
AcDbEntity
  8
_Translation
  6
Continuous
 62
     7
100
AcDbCircle
 10
2064.8774086144
 20
-2565.8753678792
 30
0.0
 40
0.01
  0
CIRCLE
  5
1FC
330
1F
100
AcDbEntity
  8
_Translation
  6
Continuous
 62
     7
100
AcDbCircle
 10
2744.8774086144
 20
-2565.8753678792
 30
0.0
 40
0.01
  0
LINE
  5
1FD
330
1F
100
AcDbEntity
  8
_Translation
  6
Continuous
 62
     7
100
AcDbLine
 10
2064.8774086144
 20
-2786.6696573624
 30
0.0
 11
2744.8774086144
 21
-2786.6696573624
 31
0.0
  0
CIRCLE
  5
1FE
330
1F
100
AcDbEntity
  8
_Translation
  6
Continuous
 62
     7
100
AcDbCircle
 10
213.5835207507
 20
-1858.5289722584
 30
0.0
 40
0.01
  0
CIRCLE
  5
1FF
330
1F
100
AcDbEntity
  8
_Translation
  6
Continuous
 62
     7
100
AcDbCircle
 10
176.5959984641
 20
-2153.5289722584
 30
0.0
 40
0.01
  0
LINE
  5
200
330
1F
100
AcDbEntity
  8
_Translation
  6
Continuous
 62
     7
100
AcDbLine
 10
119.4642366229
 20
-1858.5289722584
 30
0.0
 11
119.4642366229
 21
-2153.5289722584
 31
0.0
  0
CIRCLE
  5
201
330
1F
100
AcDbEntity
  8
_Translation
  6
Continuous
 62
     7
100
AcDbCircle
 10
213.5835207507
 20
-1858.5289722584
 30
0.0
 40
0.01
  0
CIRCLE
  5
202
330
1F
100
AcDbEntity
  8
_Translation
  6
Continuous
 62
     7
100
AcDbCircle
 10
368.5835207507
 20
-2663.5289722584
 30
0.0
 40
0.01
  0
LINE
  5
203
330
1F
100
AcDbEntity
  8
_Translation
  6
Continuous
 62
     7
100
AcDbLine
 10
-7.9913998487
 20
-1858.5289722584
 30
0.0
 11
-7.9913998487
 21
-2663.5289722584
 31
0.0
  0
CIRCLE
  5
204
330
1F
100
AcDbEntity
  8
_Translation
  6
Continuous
 62
     7
100
AcDbCircle
 10
213.5835207507
 20
-1858.5289722584
 30
0.0
 40
0.01
  0
CIRCLE
  5
205
330
1F
100
AcDbEntity
  8
_Translation
  6
Continuous
 62
     7
100
AcDbCircle
 10
523.5835207507
 20
-1858.5289722584
 30
0.0
 40
0.01
  0
LINE
  5
206
330
1F
100
AcDbEntity
  8
_Translation
  6
Continuous
 62
     7
100
AcDbLine
 10
213.5835207507
 20
-1778.5040411273
 30
0.0
 11
523.5835207507
 21
-1778.5040411273
 31
0.0
  0
CIRCLE
  5
207
330
1F
100
AcDbEntity
  8
_Translation
  6
Continuous
 62
     7
100
AcDbCircle
 10
1058.8155808117
 20
-2599.4886491292
 30
0.0
 40
0.01
  0
CIRCLE
  5
208
330
1F
100
AcDbEntity
  8
_Translation
  6
Continuous
 62
     7
100
AcDbCircle
 10
1355.8155808117
 20
-2599.4886491292
 30
0.0
 40
0.01
  0
LINE
  5
209
330
1F
100
AcDbEntity
  8
_Translation
  6
Continuous
 62
     7
100
AcDbLine
 10
1058.8155808117
 20
-2681.7691553471
 30
0.0
 11
1355.8155808117
 21
-2681.7691553471
 31
0.0
  0
LINE
  5
20A
330
1F
100
AcDbEntity
  8
0
  6
Continuous
 62
     7
100
AcDbLine
 10
213.5835207507
 20
-1858.5289722584
 30
0.0
 11
256.0835207507
 21
-1892.5289722584
 31
0.0
  0
CIRCLE
  5
20B
330
1F
100
AcDbEntity
  8
_Translation
  6
Continuous
 62
     7
100
AcDbCircle
 10
368.5835207507
 20
-1858.5289722584
 30
0.0
 40
0.01
  0
CIRCLE
  5
20C
330
1F
100
AcDbEntity
  8
_Translation
  6
Continuous
 62
     7
100
AcDbCircle
 10
478.5835207507
 20
-2578.5289722584
 30
0.0
 40
0.01
  0
LINE
  5
20D
330
1F
100
AcDbEntity
  8
_Translation
  6
Continuous
 62
     7
100
AcDbLine
 10
808.4952307829
 20
-1858.5289722584
 30
0.0
 11
808.4952307829
 21
-2578.5289722584
 31
0.0
  0
CIRCLE
  5
20E
330
1F
100
AcDbEntity
  8
_Translation
  6
Continuous
 62
     7
100
AcDbCircle
 10
1033.3155808117
 20
-2599.4886491292
 30
0.0
 40
0.01
  0
CIRCLE
  5
20F
330
1F
100
AcDbEntity
  8
_Translation
  6
Continuous
 62
     7
100
AcDbCircle
 10
1383.3155808117
 20
-2599.4886491292
 30
0.0
 40
0.01
  0
LINE
  5
210
330
1F
100
AcDbEntity
  8
_Translation
  6
Continuous
 62
     7
100
AcDbLine
 10
1033.3155808117
 20
-2781.7945946966
 30
0.0
 11
1383.3155808117
 21
-2781.7945946966
 31
0.0
  0
CIRCLE
  5
211
330
1F
100
AcDbEntity
  8
_Translation
  6
Continuous
 62
     7
100
AcDbCircle
 10
983.3155808117
 20
-1998.4886491292
 30
0.0
 40
0.01
  0
CIRCLE
  5
212
330
1F
100
AcDbEntity
  8
_Translation
  6
Continuous
 62
     7
100
AcDbCircle
 10
1433.3155808117
 20
-1998.4886491292
 30
0.0
 40
0.01
  0
LINE
  5
213
330
1F
100
AcDbEntity
  8
_Translation
  6
Continuous
 62
     7
100
AcDbLine
 10
983.3155808117
 20
-2888.3832401534
 30
0.0
 11
1433.3155808117
 21
-2888.3832401534
 31
0.0
  0
CIRCLE
  5
214
330
1F
100
AcDbEntity
  8
_Translation
  6
Continuous
 62
     7
100
AcDbCircle
 10
1385.3155808117
 20
-2599.4886491292
 30
0.0
 40
0.01
  0
CIRCLE
  5
215
330
1F
100
AcDbEntity
  8
_Translation
  6
Continuous
 62
     7
100
AcDbCircle
 10
1313.8155808117
 20
-1839.4886491292
 30
0.0
 40
0.01
  0
LINE
  5
216
330
1F
100
AcDbEntity
  8
_Translation
  6
Continuous
 62
     7
100
AcDbLine
 10
1558.7925167871
 20
-2599.4886491292
 30
0.0
 11
1558.7925167871
 21
-1839.4886491292
 31
0.0
  0
CIRCLE
  5
217
330
1F
100
AcDbEntity
  8
_Translation
  6
Continuous
 62
     7
100
AcDbCircle
 10
1095.8155808117
 20
-1846.4886491292
 30
0.0
 40
0.01
  0
CIRCLE
  5
218
330
1F
100
AcDbEntity
  8
_Translation
  6
Continuous
 62
     7
100
AcDbCircle
 10
1320.8155808117
 20
-1846.4886491292
 30
0.0
 40
0.01
  0
LINE
  5
219
330
1F
100
AcDbEntity
  8
_Translation
  6
Continuous
 62
     7
100
AcDbLine
 10
1095.8155808117
 20
-1778.5040411273
 30
0.0
 11
1320.8155808117
 21
-1778.5040411273
 31
0.0
  0
CIRCLE
  5
21A
330
1F
100
AcDbEntity
  8
_Translation
  6
Continuous
 62
     7
100
AcDbCircle
 10
2066.7524086144
 20
-2599.4886491292
 30
0.0
 40
0.01
  0
CIRCLE
  5
21B
330
1F
100
AcDbEntity
  8
_Translation
  6
Continuous
 62
     7
100
AcDbCircle
 10
2049.4399086144
 20
-2509.4886491292
 30
0.0
 40
0.01
  0
LINE
  5
21C
330
1F
100
AcDbEntity
  8
_Translation
  6
Continuous
 62
     7
100
AcDbLine
 10
1905.3409086106
 20
-2599.4886491292
 30
0.0
 11
1905.3409086106
 21
-2509.4886491292
 31
0.0
  0
CIRCLE
  5
21D
330
1F
100
AcDbEntity
  8
_Translation
  6
Continuous
 62
     7
100
AcDbCircle
 10
2036.7524086144
 20
-2569.4886491292
 30
0.0
 40
0.01
  0
CIRCLE
  5
21E
330
1F
100
AcDbEntity
  8
_Translation
  6
Continuous
 62
     7
100
AcDbCircle
 10
2096.7524086144
 20
-2569.4886491292
 30
0.0
 40
0.01
  0
LINE
  5
21F
330
1F
100
AcDbEntity
  8
_Translation
  6
Continuous
 62
     7
100
AcDbLine
 10
2036.7524086144
 20
-2742.3711535277
 30
0.0
 11
2096.7524086144
 21
-2742.3711535277
 31
0.0
  0
CIRCLE
  5
220
330
1F
100
AcDbEntity
  8
_Translation
  6
Continuous
 62
     7
100
AcDbCircle
 10
1979.4399086144
 20
-2224.4886491292
 30
0.0
 40
0.01
  0
CIRCLE
  5
221
330
1F
100
AcDbEntity
  8
_Translation
  6
Continuous
 62
     7
100
AcDbCircle
 10
2429.4399086144
 20
-2224.4886491292
 30
0.0
 40
0.01
  0
LINE
  5
222
330
1F
100
AcDbEntity
  8
_Translation
  6
Continuous
 62
     7
100
AcDbLine
 10
1979.4399086144
 20
-2344.2991974953
 30
0.0
 11
2429.4399086144
 21
-2344.2991974953
 31
0.0
  0
CIRCLE
  5
223
330
1F
100
AcDbEntity
  8
_Translation
  6
Continuous
 62
     7
100
AcDbCircle
 10
1964.4399086144
 20
-1998.4886491292
 30
0.0
 40
0.01
  0
CIRCLE
  5
224
330
1F
100
AcDbEntity
  8
_Translation
  6
Continuous
 62
     7
100
AcDbCircle
 10
2736.2540461461
 20
-1847.5696117378
 30
0.0
 40
0.01
  0
LINE
  5
225
330
1F
100
AcDbEntity
  8
_Translation
  6
Continuous
 62
     7
100
AcDbLine
 10
1964.4399086144
 20
-1570.4386958755
 30
0.0
 11
2736.2540461461
 21
-1570.4386958755
 31
0.0
  0
CIRCLE
  5
226
330
1F
100
AcDbEntity
  8
_Translation
  6
Continuous
 62
     7
100
AcDbCircle
 10
2799.4994244803
 20
-1609.0770471287
 30
0.0
 40
0.01
  0
CIRCLE
  5
227
330
1F
100
AcDbEntity
  8
_Translation
  6
Continuous
 62
     7
100
AcDbCircle
 10
2743.0024086144
 20
-2599.4886491292
 30
0.0
 40
0.01
  0
LINE
  5
228
330
1F
100
AcDbEntity
  8
_Translation
  6
Continuous
 62
     7
100
AcDbLine
 10
2907.2159224499
 20
-1609.0770471287
 30
0.0
 11
2907.2159224499
 21
-2599.4886491292
 31
0.0
  0
LINE
  5
229
330
1F
100
AcDbEntity
  8
0
  6
Continuous
 62
     7
100
AcDbLine
 10
2228.4399086144
 20
-1979.4886491292
 30
0.0
 11
2228.4399086144
 21
-1994.4886491292
 31
0.0
  0
LINE
  5
22A
330
1F
100
AcDbEntity
  8
0
  6
Continuous
 62
     7
100
AcDbLine
 10
2238.4399086144
 20
-1979.4886491292
 30
0.0
 11
2238.4399086144
 21
-1994.4886491292
 31
0.0
  0
LINE
  5
22B
330
1F
100
AcDbEntity
  8
0
  6
Continuous
 62
     7
100
AcDbLine
 10
2029.448096777
 20
-1963.2136491292
 30
0.0
 11
2224.8804490014
 21
-1963.2136491292
 31
0.0
  0
LINE
  5
22C
330
1F
100
AcDbEntity
  8
0
  6
Continuous
 62
     7
100
AcDbLine
 10
2033.4041589441
 20
-1960.8136491292
 30
0.0
 11
2225.7679296273
 21
-1960.8136491292
 31
0.0
  0
LINE
  5
22D
330
1F
100
AcDbEntity
  8
0
  6
Continuous
 62
     7
100
AcDbLine
 10
2055.7806355767
 20
-1947.2386491292
 30
0.0
 11
2230.4789983852
 21
-1947.2386491292
 31
0.0
  0
LINE
  5
22E
330
1F
100
AcDbEntity
  8
0
  6
Continuous
 62
     7
100
AcDbLine
 10
2059.7366977438
 20
-1944.8386491292
 30
0.0
 11
2231.3200950063
 21
-1944.8386491292
 31
0.0
  0
LINE
  5
22F
330
1F
100
AcDbEntity
  8
0
  6
Continuous
 62
     7
100
AcDbLine
 10
2080.2999792165
 20
-1932.3636491292
 30
0.0
 11
2235.6920451511
 21
-1932.3636491292
 31
0.0
  0
LINE
  5
230
330
1F
100
AcDbEntity
  8
0
  6
Continuous
 62
     7
100
AcDbLine
 10
2084.2560413836
 20
-1929.9636491292
 30
0.0
 11
2236.5331417721
 21
-1929.9636491292
 31
0.0
  0
INSERT
  5
232
330
1F
100
AcDbEntity
  8
0
100
AcDbBlockReference
  2
SEANNOT_GROUP
 10
0.0
 20
0.0
 30
0.0
  0
TEXT
  5
23C
330
1F
100
AcDbEntity
  8
0
  6
Continuous
 62
     7
100
AcDbText
 10
1039.0368892739
 20
-707.8051961693
 30
0.0
 40
200.0
  1
iM38
  7
SEACAD_arial_ttf
 11
1039.0368892739
 21
-507.8051961693
 31
0.0
100
AcDbText
 73
     3
  0
LINE
  5
23D
330
1F
100
AcDbEntity
  8
0
  6
Continuous
 62
     7
100
AcDbLine
 10
4072.3546859818
 20
-1989.9911920781
 30
0.0
 11
3974.8546859818
 21
-1989.9911920781
 31
0.0
  0
LINE
  5
23E
330
1F
100
AcDbEntity
  8
0
  6
Continuous
 62
     7
100
AcDbLine
 10
3981.6056153656
 20
-1989.9911920781
 30
0.0
 11
4074.7546859818
 21
-1934.9625245574
 31
0.0
  0
LINE
  5
23F
330
1F
100
AcDbEntity
  8
0
  6
Continuous
 62
     7
100
AcDbLine
 10
4072.3546859818
 20
-1993.5911920781
 30
0.0
 11
3974.8546859818
 21
-1993.5911920781
 31
0.0
  0
LINE
  5
240
330
1F
100
AcDbEntity
  8
0
  6
Continuous
 62
     7
100
AcDbLine
 10
3977.0546859818
 20
-2008.5911920781
 30
0.0
 11
4419.0546859818
 21
-2008.5911920781
 31
0.0
  0
LINE
  5
241
330
1F
100
AcDbEntity
  8
0
  6
Continuous
 62
     7
100
AcDbLine
 10
3984.5546859818
 20
-2016.5911920781
 30
0.0
 11
4408.0546859818
 21
-2016.5911920781
 31
0.0
  0
ARC
  5
242
330
1F
100
AcDbEntity
  8
0
  6
HIDDEN2
 62
     7
100
AcDbCircle
 10
4018.0546859818
 20
-2238.5911920781
 30
0.0
 40
30.0
100
AcDbArc
 50
180.0
 51
270.0
  0
ARC
  5
243
330
1F
100
AcDbEntity
  8
0
  6
Continuous
 62
     7
100
AcDbCircle
 10
4014.5546859818
 20
-2243.5911920781
 30
0.0
 40
30.0
100
AcDbArc
 50
180.0
 51
270.0
  0
LINE
  5
244
330
1F
100
AcDbEntity
  8
0
  6
Continuous
 62
     7
100
AcDbLine
 10
4013.0546859818
 20
-2519.5911920781
 30
0.0
 11
4043.0546859818
 21
-2519.5911920781
 31
0.0
  0
LINE
  5
245
330
1F
100
AcDbEntity
  8
0
  6
Continuous
 62
     7
100
AcDbLine
 10
4013.0546859818
 20
-2523.5911920781
 30
0.0
 11
4043.0546859818
 21
-2523.5911920781
 31
0.0
  0
ARC
  5
246
330
1F
100
AcDbEntity
  8
0
  6
Continuous
 62
     7
100
AcDbCircle
 10
4021.0546859818
 20
-2561.5911920781
 30
0.0
 40
8.0
100
AcDbArc
 50
90.0
 51
180.0
  0
ARC
  5
247
330
1F
100
AcDbEntity
  8
0
  6
Continuous
 62
     7
100
AcDbCircle
 10
4021.0546859818
 20
-2605.5911920781
 30
0.0
 40
8.0
100
AcDbArc
 50
180.0
 51
270.0
  0
LINE
  5
248
330
1F
100
AcDbEntity
  8
0
  6
Continuous
 62
     7
100
AcDbLine
 10
4008.0546859818
 20
-2531.5911920781
 30
0.0
 11
4065.5546859818
 21
-2531.5911920781
 31
0.0
  0
ARC
  5
249
330
1F
100
AcDbEntity
  8
0
  6
Continuous
 62
     7
100
AcDbCircle
 10
4016.0546859818
 20
-2531.5911920781
 30
0.0
 40
8.0
100
AcDbArc
 50
90.0
 51
180.0
  0
LINE
  5
24A
330
1F
100
AcDbEntity
  8
0
  6
HIDDEN2
 62
     7
100
AcDbLine
 10
3988.0546859818
 20
-2238.5911920781
 30
0.0
 11
3988.0546859818
 21
-2016.5911920781
 31
0.0
  0
LINE
  5
24B
330
1F
100
AcDbEntity
  8
0
  6
Continuous
 62
     7
100
AcDbLine
 10
3984.5546859818
 20
-2243.5911920781
 30
0.0
 11
3984.5546859818
 21
-2016.5911920781
 31
0.0
  0
LINE
  5
24C
330
1F
100
AcDbEntity
  8
0
  6
Continuous
 62
     7
100
AcDbLine
 10
4012.0546859818
 20
-2531.5911920781
 30
0.0
 11
4013.0546859818
 21
-2572.5911920781
 31
0.0
  0
LINE
  5
24D
330
1F
100
AcDbEntity
  8
0
  6
Continuous
 62
     7
100
AcDbLine
 10
4013.0546859818
 20
-2561.5911920781
 30
0.0
 11
4013.0546859818
 21
-2605.5911920781
 31
0.0
  0
LINE
  5
24E
330
1F
100
AcDbEntity
  8
0
  6
Continuous
 62
     7
100
AcDbLine
 10
4013.0546859818
 20
-2523.5911920781
 30
0.0
 11
4013.0546859818
 21
-2519.5911920781
 31
0.0
  0
LINE
  5
24F
330
1F
100
AcDbEntity
  8
0
  6
Continuous
 62
     7
100
AcDbLine
 10
3984.5546859818
 20
-2016.5911920781
 30
0.0
 11
3977.0546859818
 21
-2016.5911920781
 31
0.0
  0
POINT
  5
250
330
1F
100
AcDbEntity
  8
0
  6
Continuous
 62
     7
100
AcDbPoint
 10
3973.0546859818
 20
-2012.5911920781
 30
0.0
  0
ARC
  5
251
330
1F
100
AcDbEntity
  8
0
  6
Continuous
 62
     7
100
AcDbCircle
 10
3977.0546859818
 20
-2012.5911920781
 30
0.0
 40
4.0
100
AcDbArc
 50
90.0
 51
180.0
  0
ARC
  5
252
330
1F
100
AcDbEntity
  8
0
  6
Continuous
 62
     7
100
AcDbCircle
 10
3977.0546859818
 20
-2012.5911920781
 30
0.0
 40
4.0
100
AcDbArc
 50
180.0
 51
270.0
  0
ARC
  5
253
330
1F
100
AcDbEntity
  8
0
  6
Continuous
 62
     7
100
AcDbCircle
 10
3974.8546859818
 20
-1991.7911920781
 30
0.0
 40
1.8
100
AcDbArc
 50
90.0
 51
270.0
  0
LINE
  5
254
330
1F
100
AcDbEntity
  8
0
  6
HIDDEN2
 62
     7
100
AcDbLine
 10
4408.0546859818
 20
-2016.5911920781
 30
0.0
 11
4408.0546859818
 21
-2238.5911920781
 31
0.0
  0
LINE
  5
255
330
1F
100
AcDbEntity
  8
0
  6
Continuous
 62
     7
100
AcDbLine
 10
4411.5546859818
 20
-2016.5911920781
 30
0.0
 11
4411.5546859818
 21
-2243.5911920781
 31
0.0
  0
LINE
  5
256
330
1F
100
AcDbEntity
  8
0
  6
Continuous
 62
     7
100
AcDbLine
 10
4353.0546859818
 20
-2523.5911920781
 30
0.0
 11
4353.0546859818
 21
-2283.5911920781
 31
0.0
  0
LINE
  5
257
330
1F
100
AcDbEntity
  8
0
  6
Continuous
 62
     7
100
AcDbLine
 10
4043.0546859818
 20
-2283.5911920781
 30
0.0
 11
4043.0546859818
 21
-2523.5911920781
 31
0.0
  0
LINE
  5
258
330
1F
100
AcDbEntity
  8
0
  6
Continuous
 62
     7
100
AcDbLine
 10
4043.0546859818
 20
-2523.5911920781
 30
0.0
 11
4353.0546859818
 21
-2523.5911920781
 31
0.0
  0
LINE
  5
259
330
1F
100
AcDbEntity
  8
0
  6
Continuous
 62
     7
100
AcDbLine
 10
4060.5546859818
 20
-2572.5911920781
 30
0.0
 11
4061.5546859818
 21
-2531.5911920781
 31
0.0
  0
LINE
  5
25A
330
1F
100
AcDbEntity
  8
0
  6
Continuous
 62
     7
100
AcDbLine
 10
4034.0546859818
 20
-2531.5911920781
 30
0.0
 11
4033.0546859818
 21
-2572.5911920781
 31
0.0
  0
LINE
  5
25B
330
1F
100
AcDbEntity
  8
0
  6
Continuous
 62
     7
100
AcDbLine
 10
4040.5546859818
 20
-2572.5911920781
 30
0.0
 11
4039.5546859818
 21
-2531.5911920781
 31
0.0
  0
LINE
  5
25C
330
1F
100
AcDbEntity
  8
0
  6
Continuous
 62
     7
100
AcDbLine
 10
4060.5546859818
 20
-2605.5911920781
 30
0.0
 11
4060.5546859818
 21
-2561.5911920781
 31
0.0
  0
LINE
  5
25D
330
1F
100
AcDbEntity
  8
0
  6
Continuous
 62
     7
100
AcDbLine
 10
4033.0546859818
 20
-2605.5911920781
 30
0.0
 11
4033.0546859818
 21
-2561.5911920781
 31
0.0
  0
LINE
  5
25E
330
1F
100
AcDbEntity
  8
0
  6
Continuous
 62
     7
100
AcDbLine
 10
4040.5546859818
 20
-2561.5911920781
 30
0.0
 11
4040.5546859818
 21
-2605.5911920781
 31
0.0
  0
ARC
  5
25F
330
1F
100
AcDbEntity
  8
0
  6
Continuous
 62
     7
100
AcDbCircle
 10
4048.5546859818
 20
-2605.5911920781
 30
0.0
 40
8.0
100
AcDbArc
 50
180.0
 51
270.0
  0
LINE
  5
260
330
1F
100
AcDbEntity
  8
0
  6
Continuous
 62
     7
100
AcDbLine
 10
4021.0546859818
 20
-2613.5911920781
 30
0.0
 11
4025.0546859818
 21
-2613.5911920781
 31
0.0
  0
ARC
  5
261
330
1F
100
AcDbEntity
  8
0
  6
Continuous
 62
     7
100
AcDbCircle
 10
4025.0546859818
 20
-2605.5911920781
 30
0.0
 40
8.0
100
AcDbArc
 50
270.0
 51
0.0
  0
LINE
  5
262
330
1F
100
AcDbEntity
  8
0
  6
Continuous
 62
     7
100
AcDbLine
 10
4048.5546859818
 20
-2613.5911920781
 30
0.0
 11
4052.5546859818
 21
-2613.5911920781
 31
0.0
  0
ARC
  5
263
330
1F
100
AcDbEntity
  8
0
  6
Continuous
 62
     7
100
AcDbCircle
 10
4052.5546859818
 20
-2605.5911920781
 30
0.0
 40
8.0
100
AcDbArc
 50
270.0
 51
0.0
  0
ARC
  5
264
330
1F
100
AcDbEntity
  8
0
  6
Continuous
 62
     7
100
AcDbCircle
 10
4048.5546859818
 20
-2561.5911920781
 30
0.0
 40
8.0
100
AcDbArc
 50
90.0
 51
180.0
  0
LINE
  5
265
330
1F
100
AcDbEntity
  8
0
  6
Continuous
 62
     7
100
AcDbLine
 10
4025.0546859818
 20
-2553.5911920781
 30
0.0
 11
4021.0546859818
 21
-2553.5911920781
 31
0.0
  0
ARC
  5
266
330
1F
100
AcDbEntity
  8
0
  6
Continuous
 62
     7
100
AcDbCircle
 10
4025.0546859818
 20
-2561.5911920781
 30
0.0
 40
8.0
100
AcDbArc
 50
0.0
 51
90.0
  0
LINE
  5
267
330
1F
100
AcDbEntity
  8
0
  6
Continuous
 62
     7
100
AcDbLine
 10
4052.5546859818
 20
-2553.5911920781
 30
0.0
 11
4048.5546859818
 21
-2553.5911920781
 31
0.0
  0
ARC
  5
268
330
1F
100
AcDbEntity
  8
0
  6
Continuous
 62
     7
100
AcDbCircle
 10
4052.5546859818
 20
-2561.5911920781
 30
0.0
 40
8.0
100
AcDbArc
 50
0.0
 51
90.0
  0
LINE
  5
269
330
1F
100
AcDbEntity
  8
0
  6
Continuous
 62
     7
100
AcDbLine
 10
4039.0546859818
 20
-2523.5911920781
 30
0.0
 11
4025.0546859818
 21
-2523.5911920781
 31
0.0
  0
ARC
  5
26A
330
1F
100
AcDbEntity
  8
0
  6
Continuous
 62
     7
100
AcDbCircle
 10
4030.0546859818
 20
-2531.5911920781
 30
0.0
 40
8.0
100
AcDbArc
 50
32.4617449672
 51
90.0
  0
ARC
  5
26B
330
1F
100
AcDbEntity
  8
0
  6
Continuous
 62
     7
100
AcDbCircle
 10
4043.5546859818
 20
-2531.5911920781
 30
0.0
 40
8.0
100
AcDbArc
 50
90.0
 51
180.0
  0
LINE
  5
26C
330
1F
100
AcDbEntity
  8
0
  6
Continuous
 62
     7
100
AcDbLine
 10
4065.0546859818
 20
-2523.5911920781
 30
0.0
 11
4051.0546859818
 21
-2523.5911920781
 31
0.0
  0
ARC
  5
26D
330
1F
100
AcDbEntity
  8
0
  6
Continuous
 62
     7
100
AcDbCircle
 10
4057.5546859818
 20
-2531.5911920781
 30
0.0
 40
8.0
100
AcDbArc
 50
0.0
 51
90.0
  0
LINE
  5
26E
330
1F
100
AcDbEntity
  8
0
  6
Continuous
 62
     7
100
AcDbLine
 10
4383.0546859818
 20
-2519.5911920781
 30
0.0
 11
4353.0546859818
 21
-2519.5911920781
 31
0.0
  0
LINE
  5
26F
330
1F
100
AcDbEntity
  8
0
  6
Continuous
 62
     7
100
AcDbLine
 10
4353.0546859818
 20
-2523.5911920781
 30
0.0
 11
4383.0546859818
 21
-2523.5911920781
 31
0.0
  0
ARC
  5
270
330
1F
100
AcDbEntity
  8
0
  6
Continuous
 62
     7
100
AcDbCircle
 10
4375.0546859818
 20
-2561.5911920781
 30
0.0
 40
8.0
100
AcDbArc
 50
0.0
 51
90.0
  0
LINE
  5
271
330
1F
100
AcDbEntity
  8
0
  6
Continuous
 62
     7
100
AcDbLine
 10
4358.0546859818
 20
-2531.5911920781
 30
0.0
 11
4380.0546859818
 21
-2531.5911920781
 31
0.0
  0
ARC
  5
272
330
1F
100
AcDbEntity
  8
0
  6
Continuous
 62
     7
100
AcDbCircle
 10
4375.0546859818
 20
-2605.5911920781
 30
0.0
 40
8.0
100
AcDbArc
 50
270.0
 51
0.0
  0
LINE
  5
273
330
1F
100
AcDbEntity
  8
0
  6
Continuous
 62
     7
100
AcDbLine
 10
4362.0546859818
 20
-2531.5911920781
 30
0.0
 11
4363.0546859818
 21
-2572.5911920781
 31
0.0
  0
LINE
  5
274
330
1F
100
AcDbEntity
  8
0
  6
Continuous
 62
     7
100
AcDbLine
 10
4355.5546859818
 20
-2572.5911920781
 30
0.0
 11
4356.5546859818
 21
-2531.5911920781
 31
0.0
  0
LINE
  5
275
330
1F
100
AcDbEntity
  8
0
  6
Continuous
 62
     7
100
AcDbLine
 10
4334.5546859818
 20
-2531.5911920781
 30
0.0
 11
4335.5546859818
 21
-2572.5911920781
 31
0.0
  0
LINE
  5
276
330
1F
100
AcDbEntity
  8
0
  6
Continuous
 62
     7
100
AcDbLine
 10
4363.0546859818
 20
-2561.5911920781
 30
0.0
 11
4363.0546859818
 21
-2605.5911920781
 31
0.0
  0
LINE
  5
277
330
1F
100
AcDbEntity
  8
0
  6
Continuous
 62
     7
100
AcDbLine
 10
4355.5546859818
 20
-2605.5911920781
 30
0.0
 11
4355.5546859818
 21
-2561.5911920781
 31
0.0
  0
LINE
  5
278
330
1F
100
AcDbEntity
  8
0
  6
Continuous
 62
     7
100
AcDbLine
 10
4335.5546859818
 20
-2561.5911920781
 30
0.0
 11
4335.5546859818
 21
-2605.5911920781
 31
0.0
  0
ARC
  5
279
330
1F
100
AcDbEntity
  8
0
  6
Continuous
 62
     7
100
AcDbCircle
 10
4347.5546859818
 20
-2605.5911920781
 30
0.0
 40
8.0
100
AcDbArc
 50
270.0
 51
0.0
  0
ARC
  5
27A
330
1F
100
AcDbEntity
  8
0
  6
Continuous
 62
     7
100
AcDbCircle
 10
4343.5546859818
 20
-2605.5911920781
 30
0.0
 40
8.0
100
AcDbArc
 50
180.0
 51
270.0
  0
LINE
  5
27B
330
1F
100
AcDbEntity
  8
0
  6
Continuous
 62
     7
100
AcDbLine
 10
4343.5546859818
 20
-2613.5911920781
 30
0.0
 11
4347.5546859818
 21
-2613.5911920781
 31
0.0
  0
ARC
  5
27C
330
1F
100
AcDbEntity
  8
0
  6
Continuous
 62
     7
100
AcDbCircle
 10
4371.0546859818
 20
-2605.5911920781
 30
0.0
 40
8.0
100
AcDbArc
 50
180.0
 51
270.0
  0
LINE
  5
27D
330
1F
100
AcDbEntity
  8
0
  6
Continuous
 62
     7
100
AcDbLine
 10
4371.0546859818
 20
-2613.5911920781
 30
0.0
 11
4375.0546859818
 21
-2613.5911920781
 31
0.0
  0
ARC
  5
27E
330
1F
100
AcDbEntity
  8
0
  6
Continuous
 62
     7
100
AcDbCircle
 10
4347.5546859818
 20
-2561.5911920781
 30
0.0
 40
8.0
100
AcDbArc
 50
0.0
 51
90.0
  0
ARC
  5
27F
330
1F
100
AcDbEntity
  8
0
  6
Continuous
 62
     7
100
AcDbCircle
 10
4343.5546859818
 20
-2561.5911920781
 30
0.0
 40
8.0
100
AcDbArc
 50
90.0
 51
180.0
  0
LINE
  5
280
330
1F
100
AcDbEntity
  8
0
  6
Continuous
 62
     7
100
AcDbLine
 10
4347.5546859818
 20
-2553.5911920781
 30
0.0
 11
4343.5546859818
 21
-2553.5911920781
 31
0.0
  0
ARC
  5
281
330
1F
100
AcDbEntity
  8
0
  6
Continuous
 62
     7
100
AcDbCircle
 10
4371.0546859818
 20
-2561.5911920781
 30
0.0
 40
8.0
100
AcDbArc
 50
90.0
 51
180.0
  0
LINE
  5
282
330
1F
100
AcDbEntity
  8
0
  6
Continuous
 62
     7
100
AcDbLine
 10
4375.0546859818
 20
-2553.5911920781
 30
0.0
 11
4371.0546859818
 21
-2553.5911920781
 31
0.0
  0
LINE
  5
283
330
1F
100
AcDbEntity
  8
0
  6
Continuous
 62
     7
100
AcDbLine
 10
4350.0546859818
 20
-2523.5911920781
 30
0.0
 11
4336.0546859818
 21
-2523.5911920781
 31
0.0
  0
LINE
  5
284
330
1F
100
AcDbEntity
  8
0
  6
Continuous
 62
     7
100
AcDbLine
 10
4330.5546859818
 20
-2531.5911920781
 30
0.0
 11
4360.5546859818
 21
-2531.5911920781
 31
0.0
  0
ARC
  5
285
330
1F
100
AcDbEntity
  8
0
  6
Continuous
 62
     7
100
AcDbCircle
 10
4338.5546859818
 20
-2531.5911920781
 30
0.0
 40
8.0
100
AcDbArc
 50
90.0
 51
180.0
  0
ARC
  5
286
330
1F
100
AcDbEntity
  8
0
  6
Continuous
 62
     7
100
AcDbCircle
 10
4366.0546859818
 20
-2531.5911920781
 30
0.0
 40
8.0
100
AcDbArc
 50
90.0
 51
147.5382550328
  0
LINE
  5
287
330
1F
100
AcDbEntity
  8
0
  6
Continuous
 62
     7
100
AcDbLine
 10
4361.0546859818
 20
-2523.5911920781
 30
0.0
 11
4375.0546859818
 21
-2523.5911920781
 31
0.0
  0
ARC
  5
288
330
1F
100
AcDbEntity
  8
0
  6
Continuous
 62
     7
100
AcDbCircle
 10
4352.5546859818
 20
-2531.5911920781
 30
0.0
 40
8.0
100
AcDbArc
 50
0.0
 51
90.0
  0
LINE
  5
289
330
1F
100
AcDbEntity
  8
0
  6
Continuous
 62
     7
100
AcDbLine
 10
4383.0546859818
 20
-2572.5911920781
 30
0.0
 11
4384.0546859818
 21
-2531.5911920781
 31
0.0
  0
LINE
  5
28A
330
1F
100
AcDbEntity
  8
0
  6
Continuous
 62
     7
100
AcDbLine
 10
4383.0546859818
 20
-2605.5911920781
 30
0.0
 11
4383.0546859818
 21
-2561.5911920781
 31
0.0
  0
LINE
  5
28B
330
1F
100
AcDbEntity
  8
0
  6
Continuous
 62
     7
100
AcDbLine
 10
4383.0546859818
 20
-2523.5911920781
 30
0.0
 11
4383.0546859818
 21
-2519.5911920781
 31
0.0
  0
LINE
  5
28C
330
1F
100
AcDbEntity
  8
0
  6
Continuous
 62
     7
100
AcDbLine
 10
4380.0546859818
 20
-2531.5911920781
 30
0.0
 11
4388.0546859818
 21
-2531.5911920781
 31
0.0
  0
ARC
  5
28D
330
1F
100
AcDbEntity
  8
0
  6
Continuous
 62
     7
100
AcDbCircle
 10
4380.0546859818
 20
-2531.5911920781
 30
0.0
 40
8.0
100
AcDbArc
 50
0.0
 51
90.0
  0
LINE
  5
28E
330
1F
100
AcDbEntity
  8
0
  6
Continuous
 62
     7
100
AcDbLine
 10
4353.0546859818
 20
-2283.5911920781
 30
0.0
 11
4043.0546859818
 21
-2283.5911920781
 31
0.0
  0
LINE
  5
28F
330
1F
100
AcDbEntity
  8
0
  6
Continuous
 62
     7
100
AcDbLine
 10
4353.0546859818
 20
-2283.5911920781
 30
0.0
 11
4043.0546859818
 21
-2283.5911920781
 31
0.0
  0
LINE
  5
290
330
1F
100
AcDbEntity
  8
0
  6
Continuous
 62
     7
100
AcDbLine
 10
4381.5546859818
 20
-2273.5911920781
 30
0.0
 11
4014.5546859818
 21
-2273.5911920781
 31
0.0
  0
LINE
  5
291
330
1F
100
AcDbEntity
  8
0
  6
HIDDEN2
 62
     7
100
AcDbLine
 10
4018.0546859818
 20
-2268.5911920781
 30
0.0
 11
4378.0546859818
 21
-2268.5911920781
 31
0.0
  0
LINE
  5
292
330
1F
100
AcDbEntity
  8
0
  6
Continuous
 62
     7
100
AcDbLine
 10
4014.5546859818
 20
-2273.5911920781
 30
0.0
 11
4014.5546859818
 21
-2279.5911920781
 31
0.0
  0
LINE
  5
293
330
1F
100
AcDbEntity
  8
0
  6
Continuous
 62
     7
100
AcDbLine
 10
4043.7390713639
 20
-2279.5911920781
 30
0.0
 11
4014.5546859818
 21
-2279.5911920781
 31
0.0
  0
ARC
  5
294
330
1F
100
AcDbEntity
  8
0
  6
Continuous
 62
     7
100
AcDbCircle
 10
4381.5546859818
 20
-2243.5911920781
 30
0.0
 40
30.0
100
AcDbArc
 50
270.0
 51
0.0
  0
ARC
  5
295
330
1F
100
AcDbEntity
  8
0
  6
HIDDEN2
 62
     7
100
AcDbCircle
 10
4378.0546859818
 20
-2238.5911920781
 30
0.0
 40
30.0
100
AcDbArc
 50
270.0
 51
0.0
  0
LINE
  5
296
330
1F
100
AcDbEntity
  8
0
  6
Continuous
 62
     7
100
AcDbLine
 10
4381.5546859818
 20
-2273.5911920781
 30
0.0
 11
4381.5546859818
 21
-2279.5911920781
 31
0.0
  0
LINE
  5
297
330
1F
100
AcDbEntity
  8
0
  6
Continuous
 62
     7
100
AcDbLine
 10
4381.5546859818
 20
-2279.5911920781
 30
0.0
 11
4352.3703005997
 21
-2279.5911920781
 31
0.0
  0
LINE
  5
298
330
1F
100
AcDbEntity
  8
0
  6
HIDDEN2
 62
     7
100
AcDbLine
 10
4350.4882407991
 20
-2268.5911920781
 30
0.0
 11
4378.0546859818
 21
-2268.5911920781
 31
0.0
  0
LINE
  5
299
330
1F
100
AcDbEntity
  8
0
  6
Continuous
 62
     7
100
AcDbLine
 10
4381.5546859818
 20
-2273.5911920781
 30
0.0
 11
4351.3437225267
 21
-2273.5911920781
 31
0.0
  0
LINE
  5
29A
330
1F
100
AcDbEntity
  8
0
  6
Continuous
 62
     7
100
AcDbLine
 10
4092.5546859818
 20
-1853.5911920781
 30
0.0
 11
4303.5546859818
 21
-1853.5911920781
 31
0.0
  0
LINE
  5
29B
330
1F
100
AcDbEntity
  8
0
  6
Continuous
 62
     7
100
AcDbLine
 10
4092.5546859818
 20
-1978.5911920781
 30
0.0
 11
4303.5546859818
 21
-1978.5911920781
 31
0.0
  0
LINE
  5
29C
330
1F
100
AcDbEntity
  8
0
  6
Continuous
 62
     7
100
AcDbLine
 10
4085.5546859818
 20
-1860.5911920781
 30
0.0
 11
4085.5546859818
 21
-1971.5911920781
 31
0.0
  0
ARC
  5
29D
330
1F
100
AcDbEntity
  8
0
  6
Continuous
 62
     7
100
AcDbCircle
 10
4072.3546859818
 20
-1986.3911920781
 30
0.0
 40
7.2
100
AcDbArc
 50
270.0
 51
0.0
  0
LINE
  5
29E
330
1F
100
AcDbEntity
  8
0
  6
Continuous
 62
     7
100
AcDbLine
 10
4084.9546859818
 20
-1920.5911920781
 30
0.0
 11
4074.7546859818
 21
-1920.5911920781
 31
0.0
  0
LINE
  5
29F
330
1F
100
AcDbEntity
  8
0
  6
Continuous
 62
     7
100
AcDbLine
 10
4084.9546859818
 20
-1935.5911920781
 30
0.0
 11
4074.7546859818
 21
-1935.5911920781
 31
0.0
  0
ARC
  5
2A0
330
1F
100
AcDbEntity
  8
0
  6
Continuous
 62
     7
100
AcDbCircle
 10
4072.3546859818
 20
-1986.3911920781
 30
0.0
 40
3.6
100
AcDbArc
 50
270.0
 51
0.0
  0
LINE
  5
2A1
330
1F
100
AcDbEntity
  8
0
  6
Continuous
 62
     7
100
AcDbLine
 10
4074.7546859818
 20
-1935.5911920781
 30
0.0
 11
4074.7546859818
 21
-1920.5911920781
 31
0.0
  0
LINE
  5
2A2
330
1F
100
AcDbEntity
  8
0
  6
Continuous
 62
     7
100
AcDbLine
 10
4074.1546859818
 20
-1921.1911920781
 30
0.0
 11
4074.1546859818
 21
-1934.9911920781
 31
0.0
  0
LINE
  5
2A3
330
1F
100
AcDbEntity
  8
0
  6
Continuous
 62
     7
100
AcDbLine
 10
4074.1546859818
 20
-1921.1911920781
 30
0.0
 11
4074.7546859818
 21
-1920.5911920781
 31
0.0
  0
LINE
  5
2A4
330
1F
100
AcDbEntity
  8
0
  6
Continuous
 62
     7
100
AcDbLine
 10
4074.7546859818
 20
-1935.5911920781
 30
0.0
 11
4074.1546859818
 21
-1934.9911920781
 31
0.0
  0
LINE
  5
2A5
330
1F
100
AcDbEntity
  8
0
  6
Continuous
 62
     7
100
AcDbLine
 10
4075.9546859818
 20
-1935.5911920781
 30
0.0
 11
4075.9546859818
 21
-1986.3911920781
 31
0.0
  0
LINE
  5
2A6
330
1F
100
AcDbEntity
  8
0
  6
Continuous
 62
     7
100
AcDbLine
 10
4079.5546859818
 20
-1935.5911920781
 30
0.0
 11
4079.5546859818
 21
-1986.3911920781
 31
0.0
  0
ARC
  5
2A7
330
1F
100
AcDbEntity
  8
0
  6
Continuous
 62
     7
100
AcDbCircle
 10
4092.5546859818
 20
-1971.5911920781
 30
0.0
 40
7.0
100
AcDbArc
 50
180.0
 51
270.0
  0
LINE
  5
2A8
330
1F
100
AcDbEntity
  8
0
  6
Continuous
 62
     7
100
AcDbLine
 10
4084.9546859818
 20
-1920.5911920781
 30
0.0
 11
4085.5546859818
 21
-1921.1911920781
 31
0.0
  0
LINE
  5
2A9
330
1F
100
AcDbEntity
  8
0
  6
Continuous
 62
     7
100
AcDbLine
 10
4085.5546859818
 20
-1934.9911920781
 30
0.0
 11
4084.9546859818
 21
-1935.5911920781
 31
0.0
  0
LINE
  5
2AA
330
1F
100
AcDbEntity
  8
0
  6
Continuous
 62
     7
100
AcDbLine
 10
4084.9546859818
 20
-1935.5911920781
 30
0.0
 11
4084.9546859818
 21
-1920.5911920781
 31
0.0
  0
LINE
  5
2AB
330
1F
100
AcDbEntity
  8
0
  6
Continuous
 62
     7
100
AcDbLine
 10
4085.5546859818
 20
-1921.1911920781
 30
0.0
 11
4085.5546859818
 21
-1934.9911920781
 31
0.0
  0
ARC
  5
2AC
330
1F
100
AcDbEntity
  8
0
  6
Continuous
 62
     7
100
AcDbCircle
 10
4092.5546859818
 20
-1860.5911920781
 30
0.0
 40
7.0
100
AcDbArc
 50
90.0
 51
180.0
  0
LINE
  5
2AD
330
1F
100
AcDbEntity
  8
0
  6
Continuous
 62
     7
100
AcDbLine
 10
4310.5546859818
 20
-1860.5911920781
 30
0.0
 11
4310.5546859818
 21
-1971.5911920781
 31
0.0
  0
LINE
  5
2AE
330
1F
100
AcDbEntity
  8
0
  6
Continuous
 62
     7
100
AcDbLine
 10
4323.7546859818
 20
-1993.5911920781
 30
0.0
 11
4421.2546859818
 21
-1993.5911920781
 31
0.0
  0
LINE
  5
2AF
330
1F
100
AcDbEntity
  8
0
  6
Continuous
 62
     7
100
AcDbLine
 10
4323.7546859818
 20
-1989.9911920781
 30
0.0
 11
4421.2546859818
 21
-1989.9911920781
 31
0.0
  0
LINE
  5
2B0
330
1F
100
AcDbEntity
  8
0
  6
Continuous
 62
     7
100
AcDbLine
 10
4414.503756598
 20
-1989.9911920781
 30
0.0
 11
4321.3546859818
 21
-1934.9625245574
 31
0.0
  0
LINE
  5
2B1
330
1F
100
AcDbEntity
  8
0
  6
Continuous
 62
     7
100
AcDbLine
 10
4306.0031909652
 20
-2008.5911920781
 30
0.0
 11
4419.0546859818
 21
-2008.5911920781
 31
0.0
  0
LINE
  5
2B2
330
1F
100
AcDbEntity
  8
0
  6
Continuous
 62
     7
100
AcDbLine
 10
4307.3719617293
 20
-2016.5911920781
 30
0.0
 11
4411.5546859818
 21
-2016.5911920781
 31
0.0
  0
ARC
  5
2B3
330
1F
100
AcDbEntity
  8
0
  6
Continuous
 62
     7
100
AcDbCircle
 10
4323.7546859818
 20
-1986.3911920781
 30
0.0
 40
7.2
100
AcDbArc
 50
180.0
 51
270.0
  0
LINE
  5
2B4
330
1F
100
AcDbEntity
  8
0
  6
Continuous
 62
     7
100
AcDbLine
 10
4311.1546859818
 20
-1920.5911920781
 30
0.0
 11
4321.3546859818
 21
-1920.5911920781
 31
0.0
  0
LINE
  5
2B5
330
1F
100
AcDbEntity
  8
0
  6
Continuous
 62
     7
100
AcDbLine
 10
4311.1546859818
 20
-1935.5911920781
 30
0.0
 11
4321.3546859818
 21
-1935.5911920781
 31
0.0
  0
LINE
  5
2B6
330
1F
100
AcDbEntity
  8
0
  6
Continuous
 62
     7
100
AcDbLine
 10
4316.5546859818
 20
-1935.5911920781
 30
0.0
 11
4316.5546859818
 21
-1986.3911920781
 31
0.0
  0
ARC
  5
2B7
330
1F
100
AcDbEntity
  8
0
  6
Continuous
 62
     7
100
AcDbCircle
 10
4303.5546859818
 20
-1971.5911920781
 30
0.0
 40
7.0
100
AcDbArc
 50
270.0
 51
0.0
  0
LINE
  5
2B8
330
1F
100
AcDbEntity
  8
0
  6
Continuous
 62
     7
100
AcDbLine
 10
4311.1546859818
 20
-1920.5911920781
 30
0.0
 11
4310.5546859818
 21
-1921.1911920781
 31
0.0
  0
LINE
  5
2B9
330
1F
100
AcDbEntity
  8
0
  6
Continuous
 62
     7
100
AcDbLine
 10
4310.5546859818
 20
-1934.9911920781
 30
0.0
 11
4311.1546859818
 21
-1935.5911920781
 31
0.0
  0
LINE
  5
2BA
330
1F
100
AcDbEntity
  8
0
  6
Continuous
 62
     7
100
AcDbLine
 10
4310.5546859818
 20
-1921.1911920781
 30
0.0
 11
4310.5546859818
 21
-1934.9911920781
 31
0.0
  0
LINE
  5
2BB
330
1F
100
AcDbEntity
  8
0
  6
Continuous
 62
     7
100
AcDbLine
 10
4311.1546859818
 20
-1935.5911920781
 30
0.0
 11
4311.1546859818
 21
-1920.5911920781
 31
0.0
  0
LINE
  5
2BC
330
1F
100
AcDbEntity
  8
0
  6
Continuous
 62
     7
100
AcDbLine
 10
4320.1546859818
 20
-1935.5911920781
 30
0.0
 11
4320.1546859818
 21
-1986.3911920781
 31
0.0
  0
ARC
  5
2BD
330
1F
100
AcDbEntity
  8
0
  6
Continuous
 62
     7
100
AcDbCircle
 10
4323.7546859818
 20
-1986.3911920781
 30
0.0
 40
3.6
100
AcDbArc
 50
180.0
 51
270.0
  0
LINE
  5
2BE
330
1F
100
AcDbEntity
  8
0
  6
Continuous
 62
     7
100
AcDbLine
 10
4321.9546859818
 20
-1921.1911920781
 30
0.0
 11
4321.3546859818
 21
-1920.5911920781
 31
0.0
  0
LINE
  5
2BF
330
1F
100
AcDbEntity
  8
0
  6
Continuous
 62
     7
100
AcDbLine
 10
4321.3546859818
 20
-1935.5911920781
 30
0.0
 11
4321.9546859818
 21
-1934.9911920781
 31
0.0
  0
LINE
  5
2C0
330
1F
100
AcDbEntity
  8
0
  6
Continuous
 62
     7
100
AcDbLine
 10
4321.9546859818
 20
-1921.1911920781
 30
0.0
 11
4321.9546859818
 21
-1934.9911920781
 31
0.0
  0
LINE
  5
2C1
330
1F
100
AcDbEntity
  8
0
  6
Continuous
 62
     7
100
AcDbLine
 10
4321.3546859818
 20
-1935.5911920781
 30
0.0
 11
4321.3546859818
 21
-1920.5911920781
 31
0.0
  0
ARC
  5
2C2
330
1F
100
AcDbEntity
  8
0
  6
Continuous
 62
     7
100
AcDbCircle
 10
4419.0546859818
 20
-2012.5911920781
 30
0.0
 40
4.0
100
AcDbArc
 50
0.0
 51
90.0
  0
ARC
  5
2C3
330
1F
100
AcDbEntity
  8
0
  6
Continuous
 62
     7
100
AcDbCircle
 10
4419.0546859818
 20
-2012.5911920781
 30
0.0
 40
4.0
100
AcDbArc
 50
270.0
 51
0.0
  0
LINE
  5
2C4
330
1F
100
AcDbEntity
  8
0
  6
HIDDEN2
 62
     7
100
AcDbLine
 10
4409.5546859818
 20
-2008.5911920781
 30
0.0
 11
4419.0546859818
 21
-2008.5911920781
 31
0.0
  0
LINE
  5
2C5
330
1F
100
AcDbEntity
  8
0
  6
Continuous
 62
     7
100
AcDbLine
 10
4419.0546859818
 20
-2016.5911920781
 30
0.0
 11
4411.5546859818
 21
-2016.5911920781
 31
0.0
  0
POINT
  5
2C6
330
1F
100
AcDbEntity
  8
0
  6
Continuous
 62
     7
100
AcDbPoint
 10
4423.0546859818
 20
-2012.5911920781
 30
0.0
  0
ARC
  5
2C7
330
1F
100
AcDbEntity
  8
0
  6
Continuous
 62
     7
100
AcDbCircle
 10
4421.2546859818
 20
-1991.7911920781
 30
0.0
 40
1.8
100
AcDbArc
 50
270.0
 51
90.0
  0
ARC
  5
2C8
330
1F
100
AcDbEntity
  8
0
  6
Continuous
 62
     7
100
AcDbCircle
 10
4303.5546859818
 20
-1860.5911920781
 30
0.0
 40
7.0
100
AcDbArc
 50
0.0
 51
90.0
  0
LINE
  5
2C9
330
1F
100
AcDbEntity
  8
0
  6
Continuous
 62
     7
100
AcDbLine
 10
4028.0546859818
 20
-2491.5911920781
 30
0.0
 11
4028.0546859818
 21
-2487.5911920781
 31
0.0
  0
LINE
  5
2CA
330
1F
100
AcDbEntity
  8
0
  6
Continuous
 62
     7
100
AcDbLine
 10
4043.0546859818
 20
-2499.5911920781
 30
0.0
 11
4036.0546859818
 21
-2499.5911920781
 31
0.0
  0
ARC
  5
2CB
330
1F
100
AcDbEntity
  8
0
  6
Continuous
 62
     7
100
AcDbCircle
 10
4036.0546859818
 20
-2491.5911920781
 30
0.0
 40
8.0
100
AcDbArc
 50
180.0
 51
270.0
  0
LINE
  5
2CC
330
1F
100
AcDbEntity
  8
0
  6
Continuous
 62
     7
100
AcDbLine
 10
4036.0546859818
 20
-2479.5911920781
 30
0.0
 11
4043.0546859818
 21
-2479.5911920781
 31
0.0
  0
ARC
  5
2CD
330
1F
100
AcDbEntity
  8
0
  6
Continuous
 62
     7
100
AcDbCircle
 10
4036.0546859818
 20
-2487.5911920781
 30
0.0
 40
8.0
100
AcDbArc
 50
90.0
 51
180.0
  0
INSERT
  5
2CF
330
1F
100
AcDbEntity
  8
0
100
AcDbBlockReference
  2
SE
 10
0.0
 20
0.0
 30
0.0
  0
INSERT
  5
2D6
330
1F
100
AcDbEntity
  8
0
100
AcDbBlockReference
  2
SE1
 10
0.0
 20
0.0
 30
0.0
  0
INSERT
  5
2E2
330
1F
100
AcDbEntity
  8
0
100
AcDbBlockReference
  2
SE2
 10
0.0
 20
0.0
 30
0.0
  0
LWPOLYLINE
  5
2E9
330
1F
100
AcDbEntity
  8
0
  6
Continuous
 62
     7
100
AcDbPolyline
 90
        5
 70
     1
 43
0.0
 10
2660.7639634027
 20
-2128.177020452
 42
0.0699268119
 10
2663.8934506132
 20
-2128.0677363505
 10
2663.8934506132
 20
-2105.9095619078
 42
0.0699268119
 10
2660.7639634027
 20
-2105.8002778063
 10
2660.7639634027
 20
-2128.177020452
  0
INSERT
  5
2EB
330
1F
100
AcDbEntity
  8
0
100
AcDbBlockReference
  2
SE3
 10
0.0
 20
0.0
 30
0.0
  0
INSERT
  5
2F3
330
1F
100
AcDbEntity
  8
0
100
AcDbBlockReference
  2
GDimGGroup
 10
0.0
 20
0.0
 30
0.0
  0
INSERT
  5
2FF
330
1F
100
AcDbEntity
  8
0
100
AcDbBlockReference
  2
SE4
 10
0.0
 20
0.0
 30
0.0
  0
INSERT
  5
309
330
1F
100
AcDbEntity
  8
0
100
AcDbBlockReference
  2
SE5
 10
0.0
 20
0.0
 30
0.0
  0
INSERT
  5
313
330
1F
100
AcDbEntity
  8
0
100
AcDbBlockReference
  2
SE6
 10
0.0
 20
0.0
 30
0.0
  0
INSERT
  5
318
330
1F
100
AcDbEntity
  8
0
100
AcDbBlockReference
  2
SE7
 10
0.0
 20
0.0
 30
0.0
  0
INSERT
  5
321
330
1F
100
AcDbEntity
  8
0
100
AcDbBlockReference
  2
SE8
 10
0.0
 20
0.0
 30
0.0
  0
INSERT
  5
329
330
1F
100
AcDbEntity
  8
0
100
AcDbBlockReference
  2
SE9
 10
0.0
 20
0.0
 30
0.0
  0
LWPOLYLINE
  5
330
330
1F
100
AcDbEntity
  8
0
  6
Continuous
 62
     7
100
AcDbPolyline
 90
        5
 70
     1
 43
0.0
 10
2353.6244431773
 20
-1964.4886491292
 10
2332.6244431773
 20
-1964.4886491292
 42
0.0667186943
 10
2328.6034224123
 20
-1975.8886491292
 10
2349.6034224123
 20
-1975.8886491292
 42
-0.0667186943
 10
2353.6244431773
 20
-1964.4886491292
 42
-0.0667186943
  0
LWPOLYLINE
  5
331
330
1F
100
AcDbEntity
  8
0
  6
Continuous
 62
     7
100
AcDbPolyline
 90
        5
 70
     1
 43
0.0
 10
2349.0012560665
 20
-1979.4886491292
 10
2328.0012560665
 20
-1979.4886491292
 42
0.0830572633
 10
2328.6034224123
 20
-1994.4886491292
 10
2349.6034224123
 20
-1994.4886491292
 42
-0.0830572633
 10
2349.0012560665
 20
-1979.4886491292
 42
-0.0830572633
  0
INSERT
  5
333
330
1F
100
AcDbEntity
  8
0
100
AcDbBlockReference
  2
GDimGGroup1
 10
0.0
 20
0.0
 30
0.0
  0
INSERT
  5
33D
330
1F
100
AcDbEntity
  8
0
100
AcDbBlockReference
  2
GDimGGroup2
 10
0.0
 20
0.0
 30
0.0
  0
INSERT
  5
347
330
1F
100
AcDbEntity
  8
0
100
AcDbBlockReference
  2
GDimGGroup3
 10
0.0
 20
0.0
 30
0.0
  0
INSERT
  5
351
330
1F
100
AcDbEntity
  8
0
100
AcDbBlockReference
  2
GDimGGroup4
 10
0.0
 20
0.0
 30
0.0
  0
INSERT
  5
35B
330
1F
100
AcDbEntity
  8
0
100
AcDbBlockReference
  2
GDimGGroup5
 10
0.0
 20
0.0
 30
0.0
  0
INSERT
  5
365
330
1F
100
AcDbEntity
  8
0
100
AcDbBlockReference
  2
GDimGGroup6
 10
0.0
 20
0.0
 30
0.0
  0
INSERT
  5
36F
330
1F
100
AcDbEntity
  8
0
100
AcDbBlockReference
  2
GDimGGroup7
 10
0.0
 20
0.0
 30
0.0
  0
INSERT
  5
379
330
1F
100
AcDbEntity
  8
0
100
AcDbBlockReference
  2
GDimGGroup8
 10
0.0
 20
0.0
 30
0.0
  0
INSERT
  5
383
330
1F
100
AcDbEntity
  8
0
100
AcDbBlockReference
  2
GDimGGroup9
 10
0.0
 20
0.0
 30
0.0
  0
INSERT
  5
38D
330
1F
100
AcDbEntity
  8
0
100
AcDbBlockReference
  2
GDimGGroup10
 10
0.0
 20
0.0
 30
0.0
  0
INSERT
  5
398
330
1F
100
AcDbEntity
  8
0
100
AcDbBlockReference
  2
GDimGGroup11
 10
0.0
 20
0.0
 30
0.0
  0
INSERT
  5
3A3
330
1F
100
AcDbEntity
  8
0
100
AcDbBlockReference
  2
GDimGGroup12
 10
0.0
 20
0.0
 30
0.0
  0
INSERT
  5
3AE
330
1F
100
AcDbEntity
  8
0
100
AcDbBlockReference
  2
GDimGGroup13
 10
0.0
 20
0.0
 30
0.0
  0
INSERT
  5
3BC
330
1F
100
AcDbEntity
  8
0
100
AcDbBlockReference
  2
GDimGGroup14
 10
0.0
 20
0.0
 30
0.0
  0
INSERT
  5
3C6
330
1F
100
AcDbEntity
  8
0
100
AcDbBlockReference
  2
GDimGGroup15
 10
0.0
 20
0.0
 30
0.0
  0
INSERT
  5
3D0
330
1F
100
AcDbEntity
  8
0
100
AcDbBlockReference
  2
SE10
 10
0.0
 20
0.0
 30
0.0
  0
ENDSEC
  0
SECTION
  2
OBJECTS
  0
DICTIONARY
  5
C
330
0
100
AcDbDictionary
281
     1
  3
ACAD_GROUP
350
D
  3
ACAD_LAYOUT
350
1A
  3
ACAD_MATERIAL
350
3B
  3
ACAD_MLEADERSTYLE
350
3D8
  3
ACAD_MLINESTYLE
350
17
  3
ACAD_PLOTSETTINGS
350
19
  3
ACAD_PLOTSTYLENAME
350
E
  3
ACAD_VISUALSTYLE
350
2A
  3
AcDbVariableDictionary
350
3D6
  0
DICTIONARY
  5
D
102
{ACAD_REACTORS
330
C
102
}
330
C
100
AcDbDictionary
281
     1
  0
DICTIONARY
  5
1A
102
{ACAD_REACTORS
330
C
102
}
330
C
100
AcDbDictionary
281
     1
  3
Layout1
350
1E
  3
Model
350
22
  0
DICTIONARY
  5
3B
102
{ACAD_REACTORS
330
C
102
}
330
C
100
AcDbDictionary
281
     1
  3
ByBlock
350
3D
  3
ByLayer
350
3C
  3
Global
350
3E
  0
DICTIONARY
  5
3D8
102
{ACAD_REACTORS
330
C
102
}
330
C
100
AcDbDictionary
281
     1
  0
DICTIONARY
  5
17
102
{ACAD_REACTORS
330
C
102
}
330
C
100
AcDbDictionary
281
     1
  3
Standard
350
18
  0
DICTIONARY
  5
19
102
{ACAD_REACTORS
330
C
102
}
330
C
100
AcDbDictionary
281
     1
  0
ACDBDICTIONARYWDFLT
  5
E
102
{ACAD_REACTORS
330
C
102
}
330
C
100
AcDbDictionary
281
     1
  3
Normal
350
F
100
AcDbDictionaryWithDefault
340
F
  0
DICTIONARY
  5
2A
102
{ACAD_REACTORS
330
C
102
}
330
C
100
AcDbDictionary
281
     1
  3
2dWireframe
350
2F
  3
3D Hidden
350
31
  3
3dWireframe
350
30
  3
Basic
350
32
  3
Brighten
350
36
  3
ColorChange
350
3A
  3
Conceptual
350
34
  3
Dim
350
35
  3
Facepattern
350
39
  3
Flat
350
2B
  3
FlatWithEdges
350
2C
  3
Gouraud
350
2D
  3
GouraudWithEdges
350
2E
  3
Linepattern
350
38
  3
Realistic
350
33
  3
Thicken
350
37
  0
DICTIONARY
  5
3D6
102
{ACAD_REACTORS
330
C
102
}
330
C
100
AcDbDictionary
281
     1
  3
DIMASSOC
350
3DB
  3
HIDETEXT
350
3DC
  3
PSOLHEIGHT
350
3DA
  3
PSOLWIDTH
350
3D9
  0
LAYOUT
  5
1E
102
{ACAD_REACTORS
330
1A
102
}
330
1A
100
AcDbPlotSettings
  1

  2
none_device
  4

  6

 40
0.0
 41
0.0
 42
0.0
 43
0.0
 44
0.0
 45
0.0
 46
0.0
 47
0.0
 48
0.0
 49
0.0
140
0.0
141
0.0
142
1.0
143
1.0
 70
   688
 72
     0
 73
     0
 74
     5
  7

 75
    16
147
1.0
148
0.0
149
0.0
100
AcDbLayout
  1
Layout1
 70
     1
 71
     1
 10
0.0
 20
0.0
 11
594.0
 21
420.0
 12
0.0
 22
0.0
 32
0.0
 14
0.0
 24
0.0
 34
0.0
 15
594.0
 25
420.0
 35
0.0
146
0.0
 13
0.0
 23
0.0
 33
0.0
 16
1.0
 26
0.0
 36
0.0
 17
0.0
 27
1.0
 37
0.0
 76
     0
330
1B
  0
LAYOUT
  5
22
102
{ACAD_REACTORS
330
1A
102
}
330
1A
100
AcDbPlotSettings
  1

  2
none_device
  4

  6

 40
0.0
 41
0.0
 42
0.0
 43
0.0
 44
0.0
 45
0.0
 46
0.0
 47
0.0
 48
0.0
 49
0.0
140
0.0
141
0.0
142
1.0
143
1.0
 70
  1712
 72
     0
 73
     0
 74
     0
  7

 75
     0
147
1.0
148
0.0
149
0.0
100
AcDbLayout
  1
Model
 70
     1
 71
     0
 10
0.0
 20
0.0
 11
594.0
 21
420.0
 12
0.0
 22
0.0
 32
0.0
 14
0.0
 24
0.0
 34
0.0
 15
594.0
 25
420.0
 35
0.0
146
0.0
 13
0.0
 23
0.0
 33
0.0
 16
1.0
 26
0.0
 36
0.0
 17
0.0
 27
1.0
 37
0.0
 76
     0
330
1F
331
29
  0
MATERIAL
  5
3D
102
{ACAD_REACTORS
330
3B
102
}
102
{ACAD_XDICTIONARY
360
3FF
102
}
330
3B
100
AcDbMaterial
  1
ByBlock
  0
MATERIAL
  5
3C
102
{ACAD_REACTORS
330
3B
102
}
102
{ACAD_XDICTIONARY
360
3FD
102
}
330
3B
100
AcDbMaterial
  1
ByLayer
  0
MATERIAL
  5
3E
102
{ACAD_REACTORS
330
3B
102
}
102
{ACAD_XDICTIONARY
360
401
102
}
330
3B
100
AcDbMaterial
  1
Global
  0
MLINESTYLE
  5
18
102
{ACAD_REACTORS
330
17
102
}
330
17
100
AcDbMlineStyle
  2
Standard
 70
     0
  3

 62
   256
 51
90.0
 52
90.0
 71
     2
 49
0.5
 62
   256
  6
BYLAYER
 49
-0.5
 62
   256
  6
BYLAYER
  0
ACDBPLACEHOLDER
  5
F
102
{ACAD_REACTORS
330
E
102
}
330
E
  0
VISUALSTYLE
  5
2F
102
{ACAD_REACTORS
330
2A
102
}
102
{ACAD_XDICTIONARY
360
3E5
102
}
330
2A
100
AcDbVisualStyle
  2
2dWireframe
 70
     4
 71
     0
 72
     2
 73
     0
 90
        0
 40
-0.6
 41
-30.0
 62
     5
 63
     7
 74
     1
 91
        4
 64
     7
 65
   257
 75
     1
175
     1
 42
1.0
 92
        0
 66
   257
 43
1.0
 76
     1
 77
     6
 78
     2
 67
     7
 79
     5
170
     0
171
     0
290
     0
174
     0
 93
        1
 44
0.0
173
     0
291
     0
 45
0.0
1001
ACAD
1000
AcDbSavedByObjectVersion
1070
     0
  0
VISUALSTYLE
  5
31
102
{ACAD_REACTORS
330
2A
102
}
102
{ACAD_XDICTIONARY
360
3E9
102
}
330
2A
100
AcDbVisualStyle
  2
3D Hidden
 70
     6
 71
     1
 72
     2
 73
     2
 90
        0
 40
-0.6
 41
-30.0
 62
     5
 63
     7
 74
     2
 91
        2
 64
     7
 65
   257
 75
     2
175
     1
 42
40.0
 92
        0
 66
   257
 43
1.0
 76
     1
 77
     6
 78
     2
 67
     7
 79
     3
170
     0
171
     0
290
     0
174
     0
 93
        1
 44
0.0
173
     0
291
     0
 45
0.0
1001
ACAD
1000
AcDbSavedByObjectVersion
1070
     0
  0
VISUALSTYLE
  5
30
102
{ACAD_REACTORS
330
2A
102
}
102
{ACAD_XDICTIONARY
360
3E7
102
}
330
2A
100
AcDbVisualStyle
  2
3dWireframe
 70
     5
 71
     0
 72
     2
 73
     0
 90
        0
 40
-0.6
 41
-30.0
 62
     5
 63
     7
 74
     1
 91
        4
 64
     7
 65
   257
 75
     1
175
     1
 42
1.0
 92
        0
 66
   257
 43
1.0
 76
     1
 77
     6
 78
     2
 67
     7
 79
     5
170
     0
171
     0
290
     0
174
     0
 93
        1
 44
0.0
173
     0
291
     0
 45
0.0
1001
ACAD
1000
AcDbSavedByObjectVersion
1070
     0
  0
VISUALSTYLE
  5
32
102
{ACAD_REACTORS
330
2A
102
}
102
{ACAD_XDICTIONARY
360
3EB
102
}
330
2A
100
AcDbVisualStyle
  2
Basic
 70
     7
 71
     1
 72
     0
 73
     1
 90
        0
 40
-0.6
 41
-30.0
 62
     5
 63
     7
 74
     0
 91
        4
 64
     7
 65
   257
 75
     1
175
     1
 42
1.0
 92
        8
 66
     7
 43
1.0
 76
     1
 77
     6
 78
     2
 67
     7
 79
     5
170
     0
171
     0
290
     0
174
     0
 93
        1
 44
0.0
173
     0
291
     1
 45
0.0
1001
ACAD
1000
AcDbSavedByObjectVersion
1070
     0
  0
VISUALSTYLE
  5
36
102
{ACAD_REACTORS
330
2A
102
}
102
{ACAD_XDICTIONARY
360
3F3
102
}
330
2A
100
AcDbVisualStyle
  2
Brighten
 70
    12
 71
     2
 72
     2
 73
     0
 90
        0
 40
-0.6
 41
-30.0
 62
     5
 63
     7
 74
     1
 91
        4
 64
     7
 65
   257
 75
     1
175
     1
 42
1.0
 92
        8
 66
     7
 43
1.0
 76
     1
 77
     6
 78
     2
 67
     7
 79
     5
170
     0
171
     0
290
     0
174
     0
 93
        1
 44
50.0
173
     0
291
     1
 45
0.0
1001
ACAD
1000
AcDbSavedByObjectVersion
1070
     0
  0
VISUALSTYLE
  5
3A
102
{ACAD_REACTORS
330
2A
102
}
102
{ACAD_XDICTIONARY
360
3FB
102
}
330
2A
100
AcDbVisualStyle
  2
ColorChange
 70
    16
 71
     2
 72
     2
 73
     3
 90
        0
 40
-0.6
 41
-30.0
 62
     5
 63
     8
 74
     1
 91
        4
 64
     7
 65
   257
 75
     1
175
     1
 42
1.0
 92
        8
 66
     8
 43
1.0
 76
     1
 77
     6
 78
     2
 67
     7
 79
     5
170
     0
171
     0
290
     0
174
     0
 93
        1
 44
0.0
173
     0
291
     1
 45
0.0
1001
ACAD
1000
AcDbSavedByObjectVersion
1070
     0
  0
VISUALSTYLE
  5
34
102
{ACAD_REACTORS
330
2A
102
}
102
{ACAD_XDICTIONARY
360
3EF
102
}
330
2A
100
AcDbVisualStyle
  2
Conceptual
 70
     9
 71
     3
 72
     2
 73
     0
 90
        0
 40
-0.6
 41
-30.0
 62
     5
 63
     7
 74
     2
 91
        2
 64
     7
 65
   257
 75
     1
175
     1
 42
40.0
 92
        8
 66
     7
 43
1.0
 76
     1
 77
     6
 78
     2
 67
     7
 79
     3
170
     0
171
     0
290
     0
174
     0
 93
        1
 44
0.0
173
     0
291
     0
 45
0.0
1001
ACAD
1000
AcDbSavedByObjectVersion
1070
     0
  0
VISUALSTYLE
  5
35
102
{ACAD_REACTORS
330
2A
102
}
102
{ACAD_XDICTIONARY
360
3F1
102
}
330
2A
100
AcDbVisualStyle
  2
Dim
 70
    11
 71
     2
 72
     2
 73
     0
 90
        0
 40
-0.6
 41
-30.0
 62
     5
 63
     7
 74
     1
 91
        4
 64
     7
 65
   257
 75
     1
175
     1
 42
1.0
 92
        8
 66
     7
 43
1.0
 76
     1
 77
     6
 78
     2
 67
     7
 79
     5
170
     0
171
     0
290
     0
174
     0
 93
        1
 44
-50.0
173
     0
291
     1
 45
0.0
1001
ACAD
1000
AcDbSavedByObjectVersion
1070
     0
  0
VISUALSTYLE
  5
39
102
{ACAD_REACTORS
330
2A
102
}
102
{ACAD_XDICTIONARY
360
3F9
102
}
330
2A
100
AcDbVisualStyle
  2
Facepattern
 70
    15
 71
     2
 72
     2
 73
     0
 90
        0
 40
-0.6
 41
-30.0
 62
     5
 63
     7
 74
     1
 91
        4
 64
     7
 65
   257
 75
     1
175
     1
 42
1.0
 92
        8
 66
     7
 43
1.0
 76
     1
 77
     6
 78
     2
 67
     7
 79
     5
170
     0
171
     0
290
     0
174
     0
 93
        1
 44
0.0
173
     0
291
     1
 45
0.0
1001
ACAD
1000
AcDbSavedByObjectVersion
1070
     0
  0
VISUALSTYLE
  5
2B
102
{ACAD_REACTORS
330
2A
102
}
102
{ACAD_XDICTIONARY
360
3DD
102
}
330
2A
100
AcDbVisualStyle
  2
Flat
 70
     0
 71
     2
 72
     1
 73
     1
 90
        2
 40
-0.6
 41
30.0
 62
     5
 63
     7
 74
     0
 91
        4
 64
     7
 65
   257
 75
     1
175
     1
 42
1.0
 92
        8
 66
     7
 43
1.0
 76
     1
 77
     6
 78
     2
 67
     7
 79
     5
170
     0
171
     0
290
     0
174
     0
 93
       13
 44
0.0
173
     0
291
     1
 45
0.0
1001
ACAD
1000
AcDbSavedByObjectVersion
1070
     0
  0
VISUALSTYLE
  5
2C
102
{ACAD_REACTORS
330
2A
102
}
102
{ACAD_XDICTIONARY
360
3DF
102
}
330
2A
100
AcDbVisualStyle
  2
FlatWithEdges
 70
     1
 71
     2
 72
     1
 73
     1
 90
        2
 40
-0.6
 41
30.0
 62
     5
 63
     7
 74
     1
 91
        4
 64
     7
 65
   257
 75
     1
175
     1
 42
1.0
 92
        0
 66
   257
 43
1.0
 76
     1
 77
     6
 78
     2
 67
     7
 79
     5
170
     0
171
     0
290
     0
174
     0
 93
       13
 44
0.0
173
     0
291
     1
 45
0.0
1001
ACAD
1000
AcDbSavedByObjectVersion
1070
     0
  0
VISUALSTYLE
  5
2D
102
{ACAD_REACTORS
330
2A
102
}
102
{ACAD_XDICTIONARY
360
3E1
102
}
330
2A
100
AcDbVisualStyle
  2
Gouraud
 70
     2
 71
     2
 72
     2
 73
     1
 90
        2
 40
-0.6
 41
30.0
 62
     5
 63
     7
 74
     0
 91
        4
 64
     7
 65
   257
 75
     1
175
     1
 42
1.0
 92
        0
 66
     7
 43
1.0
 76
     1
 77
     6
 78
     2
 67
     7
 79
     5
170
     0
171
     0
290
     0
174
     0
 93
       13
 44
0.0
173
     0
291
     1
 45
0.0
1001
ACAD
1000
AcDbSavedByObjectVersion
1070
     0
  0
VISUALSTYLE
  5
2E
102
{ACAD_REACTORS
330
2A
102
}
102
{ACAD_XDICTIONARY
360
3E3
102
}
330
2A
100
AcDbVisualStyle
  2
GouraudWithEdges
 70
     3
 71
     2
 72
     2
 73
     1
 90
        2
 40
-0.6
 41
30.0
 62
     5
 63
     7
 74
     1
 91
        4
 64
     7
 65
   257
 75
     1
175
     1
 42
1.0
 92
        0
 66
   257
 43
1.0
 76
     1
 77
     6
 78
     2
 67
     7
 79
     5
170
     0
171
     0
290
     0
174
     0
 93
       13
 44
0.0
173
     0
291
     1
 45
0.0
1001
ACAD
1000
AcDbSavedByObjectVersion
1070
     0
  0
VISUALSTYLE
  5
38
102
{ACAD_REACTORS
330
2A
102
}
102
{ACAD_XDICTIONARY
360
3F7
102
}
330
2A
100
AcDbVisualStyle
  2
Linepattern
 70
    14
 71
     2
 72
     2
 73
     0
 90
        0
 40
-0.6
 41
-30.0
 62
     5
 63
     7
 74
     1
 91
        4
 64
     7
 65
   257
 75
     7
175
     7
 42
1.0
 92
        8
 66
     7
 43
1.0
 76
     1
 77
     6
 78
     2
 67
     7
 79
     5
170
     0
171
     0
290
     0
174
     0
 93
        1
 44
0.0
173
     0
291
     1
 45
0.0
1001
ACAD
1000
AcDbSavedByObjectVersion
1070
     0
  0
VISUALSTYLE
  5
33
102
{ACAD_REACTORS
330
2A
102
}
102
{ACAD_XDICTIONARY
360
3ED
102
}
330
2A
100
AcDbVisualStyle
  2
Realistic
 70
     8
 71
     2
 72
     2
 73
     0
 90
        0
 40
-0.6
 41
-30.0
 62
     5
 63
     7
 74
     1
 91
        0
 64
     7
 65
   257
 75
     1
175
     1
 42
1.0
 92
        8
 66
     8
 43
1.0
 76
     1
 77
     6
 78
     2
 67
     7
 79
     5
170
     0
171
     0
290
     0
174
     0
 93
       13
 44
0.0
173
     0
291
     0
 45
0.0
1001
ACAD
1000
AcDbSavedByObjectVersion
1070
     0
  0
VISUALSTYLE
  5
37
102
{ACAD_REACTORS
330
2A
102
}
102
{ACAD_XDICTIONARY
360
3F5
102
}
330
2A
100
AcDbVisualStyle
  2
Thicken
 70
    13
 71
     2
 72
     2
 73
     0
 90
        0
 40
-0.6
 41
-30.0
 62
     5
 63
     7
 74
     1
 91
        4
 64
     7
 65
   257
 75
     1
175
     1
 42
1.0
 92
       12
 66
     7
 43
1.0
 76
     1
 77
     6
 78
     2
 67
     7
 79
     5
170
     0
171
     0
290
     0
174
     0
 93
        1
 44
0.0
173
     0
291
     1
 45
0.0
1001
ACAD
1000
AcDbSavedByObjectVersion
1070
     0
  0
DICTIONARYVAR
  5
3DB
102
{ACAD_REACTORS
330
3D6
102
}
330
3D6
100
DictionaryVariables
280
     0
  1
2
  0
DICTIONARYVAR
  5
3DC
102
{ACAD_REACTORS
330
3D6
102
}
330
3D6
100
DictionaryVariables
280
     0
  1
1
  0
DICTIONARYVAR
  5
3DA
102
{ACAD_REACTORS
330
3D6
102
}
330
3D6
100
DictionaryVariables
280
     0
  1
80.000000
  0
DICTIONARYVAR
  5
3D9
102
{ACAD_REACTORS
330
3D6
102
}
330
3D6
100
DictionaryVariables
280
     0
  1
5.000000
  0
DICTIONARY
  5
3FF
330
3D
100
AcDbDictionary
280
     1
281
     1
  3
ACAD_XREC_ROUNDTRIP
360
400
  0
DICTIONARY
  5
3FD
330
3C
100
AcDbDictionary
280
     1
281
     1
  3
ACAD_XREC_ROUNDTRIP
360
3FE
  0
DICTIONARY
  5
401
330
3E
100
AcDbDictionary
280
     1
281
     1
  3
ACAD_XREC_ROUNDTRIP
360
402
  0
DICTIONARY
  5
3E5
330
2F
100
AcDbDictionary
280
     1
281
     1
  3
ACAD_XREC_ROUNDTRIP
360
3E6
  0
DICTIONARY
  5
3E9
330
31
100
AcDbDictionary
280
     1
281
     1
  3
ACAD_XREC_ROUNDTRIP
360
3EA
  0
DICTIONARY
  5
3E7
330
30
100
AcDbDictionary
280
     1
281
     1
  3
ACAD_XREC_ROUNDTRIP
360
3E8
  0
DICTIONARY
  5
3EB
330
32
100
AcDbDictionary
280
     1
281
     1
  3
ACAD_XREC_ROUNDTRIP
360
3EC
  0
DICTIONARY
  5
3F3
330
36
100
AcDbDictionary
280
     1
281
     1
  3
ACAD_XREC_ROUNDTRIP
360
3F4
  0
DICTIONARY
  5
3FB
330
3A
100
AcDbDictionary
280
     1
281
     1
  3
ACAD_XREC_ROUNDTRIP
360
3FC
  0
DICTIONARY
  5
3EF
330
34
100
AcDbDictionary
280
     1
281
     1
  3
ACAD_XREC_ROUNDTRIP
360
3F0
  0
DICTIONARY
  5
3F1
330
35
100
AcDbDictionary
280
     1
281
     1
  3
ACAD_XREC_ROUNDTRIP
360
3F2
  0
DICTIONARY
  5
3F9
330
39
100
AcDbDictionary
280
     1
281
     1
  3
ACAD_XREC_ROUNDTRIP
360
3FA
  0
DICTIONARY
  5
3DD
330
2B
100
AcDbDictionary
280
     1
281
     1
  3
ACAD_XREC_ROUNDTRIP
360
3DE
  0
DICTIONARY
  5
3DF
330
2C
100
AcDbDictionary
280
     1
281
     1
  3
ACAD_XREC_ROUNDTRIP
360
3E0
  0
DICTIONARY
  5
3E1
330
2D
100
AcDbDictionary
280
     1
281
     1
  3
ACAD_XREC_ROUNDTRIP
360
3E2
  0
DICTIONARY
  5
3E3
330
2E
100
AcDbDictionary
280
     1
281
     1
  3
ACAD_XREC_ROUNDTRIP
360
3E4
  0
DICTIONARY
  5
3F7
330
38
100
AcDbDictionary
280
     1
281
     1
  3
ACAD_XREC_ROUNDTRIP
360
3F8
  0
DICTIONARY
  5
3ED
330
33
100
AcDbDictionary
280
     1
281
     1
  3
ACAD_XREC_ROUNDTRIP
360
3EE
  0
DICTIONARY
  5
3F5
330
37
100
AcDbDictionary
280
     1
281
     1
  3
ACAD_XREC_ROUNDTRIP
360
3F6
  0
XRECORD
  5
400
102
{ACAD_REACTORS
330
3FF
102
}
330
3FF
100
AcDbXrecord
280
     1
102
MATERIAL
148
0.0
149
0.0
149
0.0
 93
        0
 94
      127
282
     0
 72
     1
 77
     1
171
     1
175
     1
179
     1
273
     0
  0
XRECORD
  5
3FE
102
{ACAD_REACTORS
330
3FD
102
}
330
3FD
100
AcDbXrecord
280
     1
102
MATERIAL
148
0.0
149
0.0
149
0.0
 93
        0
 94
      127
282
     0
 72
     1
 77
     1
171
     1
175
     1
179
     1
273
     0
  0
XRECORD
  5
402
102
{ACAD_REACTORS
330
401
102
}
330
401
100
AcDbXrecord
280
     1
102
MATERIAL
148
0.0
149
0.0
149
0.0
 93
        0
 94
      127
282
     0
 72
     1
 77
     1
171
     1
175
     1
179
     1
273
     0
  0
XRECORD
  5
3E6
102
{ACAD_REACTORS
330
3E5
102
}
330
3E5
100
AcDbXrecord
280
     1
102
RTVSPropertyOp0
 70
     1
102
RTVSPropertyOp1
 70
     1
102
RTVSPropertyOp2
 70
     1
102
RTVSPropertyOp3
 70
     1
102
RTVSPropertyOp4
 70
     1
102
RTVSPropertyOp5
 70
     1
102
RTVSPropertyOp6
 70
     1
102
RTVSPropertyOp7
 70
     1
102
RTVSPropertyOp8
 70
     1
102
RTVSPropertyOp9
 70
     1
102
RTVSPropertyOp10
 70
     1
102
RTVSPropertyOp11
 70
     1
102
RTVSPropertyOp12
 70
     1
102
RTVSPropertyOp13
 70
     1
102
RTVSPropertyOp14
 70
     1
102
RTVSPropertyOp15
 70
     1
102
RTVSPropertyOp16
 70
     1
102
RTVSPropertyOp17
 70
     1
102
RTVSPropertyOp18
 70
     1
102
RTVSPropertyOp19
 70
     1
102
RTVSPropertyOp20
 70
     1
102
RTVSPropertyOp21
 70
     1
102
RTVSPropertyOp22
 70
     1
102
RTVSPropertyOp23
 70
     1
102
RTVSPropertyOp24
 70
     1
102
RTVSPropertyOp25
 70
     1
102
RTVSPropertyOp26
 70
     1
102
RTVSPropertyOp27
 70
     1
102
RTVSPropertyOp28
 70
     1
102
RTVSPropertyOp29
 70
     1
102
RTVSPropertyOp30
 70
     1
102
RTVSPropertyOp31
 70
     1
102
RTVSPropertyOp32
 70
     1
  0
XRECORD
  5
3EA
102
{ACAD_REACTORS
330
3E9
102
}
330
3E9
100
AcDbXrecord
280
     1
102
RTVSPropertyOp0
 70
     1
102
RTVSPropertyOp1
 70
     1
102
RTVSPropertyOp2
 70
     1
102
RTVSPropertyOp3
 70
     1
102
RTVSPropertyOp4
 70
     1
102
RTVSPropertyOp5
 70
     1
102
RTVSPropertyOp6
 70
     1
102
RTVSPropertyOp7
 70
     1
102
RTVSPropertyOp8
 70
     1
102
RTVSPropertyOp9
 70
     1
102
RTVSPropertyOp10
 70
     1
102
RTVSPropertyOp11
 70
     1
102
RTVSPropertyOp12
 70
     1
102
RTVSPropertyOp13
 70
     1
102
RTVSPropertyOp14
 70
     1
102
RTVSPropertyOp15
 70
     1
102
RTVSPropertyOp16
 70
     1
102
RTVSPropertyOp17
 70
     1
102
RTVSPropertyOp18
 70
     1
102
RTVSPropertyOp19
 70
     1
102
RTVSPropertyOp20
 70
     1
102
RTVSPropertyOp21
 70
     1
102
RTVSPropertyOp22
 70
     1
102
RTVSPropertyOp23
 70
     1
102
RTVSPropertyOp24
 70
     1
102
RTVSPropertyOp25
 70
     1
102
RTVSPropertyOp26
 70
     1
102
RTVSPropertyOp27
 70
     1
102
RTVSPropertyOp28
 70
     1
102
RTVSPropertyOp29
 70
     1
102
RTVSPropertyOp30
 70
     1
102
RTVSPropertyOp31
 70
     1
102
RTVSPropertyOp32
 70
     1
  0
XRECORD
  5
3E8
102
{ACAD_REACTORS
330
3E7
102
}
330
3E7
100
AcDbXrecord
280
     1
102
RTVSPropertyOp0
 70
     1
102
RTVSPropertyOp1
 70
     1
102
RTVSPropertyOp2
 70
     1
102
RTVSPropertyOp3
 70
     1
102
RTVSPropertyOp4
 70
     1
102
RTVSPropertyOp5
 70
     1
102
RTVSPropertyOp6
 70
     1
102
RTVSPropertyOp7
 70
     1
102
RTVSPropertyOp8
 70
     1
102
RTVSPropertyOp9
 70
     1
102
RTVSPropertyOp10
 70
     1
102
RTVSPropertyOp11
 70
     1
102
RTVSPropertyOp12
 70
     1
102
RTVSPropertyOp13
 70
     1
102
RTVSPropertyOp14
 70
     1
102
RTVSPropertyOp15
 70
     1
102
RTVSPropertyOp16
 70
     1
102
RTVSPropertyOp17
 70
     1
102
RTVSPropertyOp18
 70
     1
102
RTVSPropertyOp19
 70
     1
102
RTVSPropertyOp20
 70
     1
102
RTVSPropertyOp21
 70
     1
102
RTVSPropertyOp22
 70
     1
102
RTVSPropertyOp23
 70
     1
102
RTVSPropertyOp24
 70
     1
102
RTVSPropertyOp25
 70
     1
102
RTVSPropertyOp26
 70
     1
102
RTVSPropertyOp27
 70
     1
102
RTVSPropertyOp28
 70
     1
102
RTVSPropertyOp29
 70
     1
102
RTVSPropertyOp30
 70
     1
102
RTVSPropertyOp31
 70
     1
102
RTVSPropertyOp32
 70
     1
  0
XRECORD
  5
3EC
102
{ACAD_REACTORS
330
3EB
102
}
330
3EB
100
AcDbXrecord
280
     1
102
RTVSPropertyOp0
 70
     1
102
RTVSPropertyOp1
 70
     1
102
RTVSPropertyOp2
 70
     1
102
RTVSPropertyOp3
 70
     1
102
RTVSPropertyOp4
 70
     1
102
RTVSPropertyOp5
 70
     1
102
RTVSPropertyOp6
 70
     1
102
RTVSPropertyOp7
 70
     1
102
RTVSPropertyOp8
 70
     1
102
RTVSPropertyOp9
 70
     1
102
RTVSPropertyOp10
 70
     1
102
RTVSPropertyOp11
 70
     1
102
RTVSPropertyOp12
 70
     1
102
RTVSPropertyOp13
 70
     1
102
RTVSPropertyOp14
 70
     1
102
RTVSPropertyOp15
 70
     1
102
RTVSPropertyOp16
 70
     1
102
RTVSPropertyOp17
 70
     1
102
RTVSPropertyOp18
 70
     1
102
RTVSPropertyOp19
 70
     1
102
RTVSPropertyOp20
 70
     1
102
RTVSPropertyOp21
 70
     1
102
RTVSPropertyOp22
 70
     1
102
RTVSPropertyOp23
 70
     1
102
RTVSPropertyOp24
 70
     1
102
RTVSPropertyOp25
 70
     1
102
RTVSPropertyOp26
 70
     1
102
RTVSPropertyOp27
 70
     1
102
RTVSPropertyOp28
 70
     1
102
RTVSPropertyOp29
 70
     1
102
RTVSPropertyOp30
 70
     1
102
RTVSPropertyOp31
 70
     1
102
RTVSPropertyOp32
 70
     1
  0
XRECORD
  5
3F4
102
{ACAD_REACTORS
330
3F3
102
}
330
3F3
100
AcDbXrecord
280
     1
102
RTVSPropertyOp0
 70
     1
102
RTVSPropertyOp1
 70
     1
102
RTVSPropertyOp2
 70
     1
102
RTVSPropertyOp3
 70
     1
102
RTVSPropertyOp4
 70
     1
102
RTVSPropertyOp5
 70
     1
102
RTVSPropertyOp6
 70
     1
102
RTVSPropertyOp7
 70
     1
102
RTVSPropertyOp8
 70
     1
102
RTVSPropertyOp9
 70
     1
102
RTVSPropertyOp10
 70
     1
102
RTVSPropertyOp11
 70
     1
102
RTVSPropertyOp12
 70
     1
102
RTVSPropertyOp13
 70
     1
102
RTVSPropertyOp14
 70
     1
102
RTVSPropertyOp15
 70
     1
102
RTVSPropertyOp16
 70
     1
102
RTVSPropertyOp17
 70
     1
102
RTVSPropertyOp18
 70
     1
102
RTVSPropertyOp19
 70
     1
102
RTVSPropertyOp20
 70
     1
102
RTVSPropertyOp21
 70
     1
102
RTVSPropertyOp22
 70
     1
102
RTVSPropertyOp23
 70
     1
102
RTVSPropertyOp24
 70
     1
102
RTVSPropertyOp25
 70
     1
102
RTVSPropertyOp26
 70
     1
102
RTVSPropertyOp27
 70
     1
102
RTVSPropertyOp28
 70
     1
102
RTVSPropertyOp29
 70
     1
102
RTVSPropertyOp30
 70
     1
102
RTVSPropertyOp31
 70
     1
102
RTVSPropertyOp32
 70
     1
  0
XRECORD
  5
3FC
102
{ACAD_REACTORS
330
3FB
102
}
330
3FB
100
AcDbXrecord
280
     1
102
RTVSPropertyOp0
 70
     1
102
RTVSPropertyOp1
 70
     1
102
RTVSPropertyOp2
 70
     1
102
RTVSPropertyOp3
 70
     1
102
RTVSPropertyOp4
 70
     1
102
RTVSPropertyOp5
 70
     1
102
RTVSPropertyOp6
 70
     1
102
RTVSPropertyOp7
 70
     1
102
RTVSPropertyOp8
 70
     1
102
RTVSPropertyOp9
 70
     1
102
RTVSPropertyOp10
 70
     1
102
RTVSPropertyOp11
 70
     1
102
RTVSPropertyOp12
 70
     1
102
RTVSPropertyOp13
 70
     1
102
RTVSPropertyOp14
 70
     1
102
RTVSPropertyOp15
 70
     1
102
RTVSPropertyOp16
 70
     1
102
RTVSPropertyOp17
 70
     1
102
RTVSPropertyOp18
 70
     1
102
RTVSPropertyOp19
 70
     1
102
RTVSPropertyOp20
 70
     1
102
RTVSPropertyOp21
 70
     1
102
RTVSPropertyOp22
 70
     1
102
RTVSPropertyOp23
 70
     1
102
RTVSPropertyOp24
 70
     1
102
RTVSPropertyOp25
 70
     1
102
RTVSPropertyOp26
 70
     1
102
RTVSPropertyOp27
 70
     1
102
RTVSPropertyOp28
 70
     1
102
RTVSPropertyOp29
 70
     1
102
RTVSPropertyOp30
 70
     1
102
RTVSPropertyOp31
 70
     1
102
RTVSPropertyOp32
 70
     1
  0
XRECORD
  5
3F0
102
{ACAD_REACTORS
330
3EF
102
}
330
3EF
100
AcDbXrecord
280
     1
102
RTVSPropertyOp0
 70
     1
102
RTVSPropertyOp1
 70
     1
102
RTVSPropertyOp2
 70
     1
102
RTVSPropertyOp3
 70
     1
102
RTVSPropertyOp4
 70
     1
102
RTVSPropertyOp5
 70
     1
102
RTVSPropertyOp6
 70
     1
102
RTVSPropertyOp7
 70
     1
102
RTVSPropertyOp8
 70
     1
102
RTVSPropertyOp9
 70
     1
102
RTVSPropertyOp10
 70
     1
102
RTVSPropertyOp11
 70
     1
102
RTVSPropertyOp12
 70
     1
102
RTVSPropertyOp13
 70
     1
102
RTVSPropertyOp14
 70
     1
102
RTVSPropertyOp15
 70
     1
102
RTVSPropertyOp16
 70
     1
102
RTVSPropertyOp17
 70
     1
102
RTVSPropertyOp18
 70
     1
102
RTVSPropertyOp19
 70
     1
102
RTVSPropertyOp20
 70
     1
102
RTVSPropertyOp21
 70
     1
102
RTVSPropertyOp22
 70
     1
102
RTVSPropertyOp23
 70
     1
102
RTVSPropertyOp24
 70
     1
102
RTVSPropertyOp25
 70
     1
102
RTVSPropertyOp26
 70
     1
102
RTVSPropertyOp27
 70
     1
102
RTVSPropertyOp28
 70
     1
102
RTVSPropertyOp29
 70
     1
102
RTVSPropertyOp30
 70
     1
102
RTVSPropertyOp31
 70
     1
102
RTVSPropertyOp32
 70
     1
  0
XRECORD
  5
3F2
102
{ACAD_REACTORS
330
3F1
102
}
330
3F1
100
AcDbXrecord
280
     1
102
RTVSPropertyOp0
 70
     1
102
RTVSPropertyOp1
 70
     1
102
RTVSPropertyOp2
 70
     1
102
RTVSPropertyOp3
 70
     1
102
RTVSPropertyOp4
 70
     1
102
RTVSPropertyOp5
 70
     1
102
RTVSPropertyOp6
 70
     1
102
RTVSPropertyOp7
 70
     1
102
RTVSPropertyOp8
 70
     1
102
RTVSPropertyOp9
 70
     1
102
RTVSPropertyOp10
 70
     1
102
RTVSPropertyOp11
 70
     1
102
RTVSPropertyOp12
 70
     1
102
RTVSPropertyOp13
 70
     1
102
RTVSPropertyOp14
 70
     1
102
RTVSPropertyOp15
 70
     1
102
RTVSPropertyOp16
 70
     1
102
RTVSPropertyOp17
 70
     1
102
RTVSPropertyOp18
 70
     1
102
RTVSPropertyOp19
 70
     1
102
RTVSPropertyOp20
 70
     1
102
RTVSPropertyOp21
 70
     1
102
RTVSPropertyOp22
 70
     1
102
RTVSPropertyOp23
 70
     1
102
RTVSPropertyOp24
 70
     1
102
RTVSPropertyOp25
 70
     1
102
RTVSPropertyOp26
 70
     1
102
RTVSPropertyOp27
 70
     1
102
RTVSPropertyOp28
 70
     1
102
RTVSPropertyOp29
 70
     1
102
RTVSPropertyOp30
 70
     1
102
RTVSPropertyOp31
 70
     1
102
RTVSPropertyOp32
 70
     1
  0
XRECORD
  5
3FA
102
{ACAD_REACTORS
330
3F9
102
}
330
3F9
100
AcDbXrecord
280
     1
102
RTVSPropertyOp0
 70
     1
102
RTVSPropertyOp1
 70
     1
102
RTVSPropertyOp2
 70
     1
102
RTVSPropertyOp3
 70
     1
102
RTVSPropertyOp4
 70
     1
102
RTVSPropertyOp5
 70
     1
102
RTVSPropertyOp6
 70
     1
102
RTVSPropertyOp7
 70
     1
102
RTVSPropertyOp8
 70
     1
102
RTVSPropertyOp9
 70
     1
102
RTVSPropertyOp10
 70
     1
102
RTVSPropertyOp11
 70
     1
102
RTVSPropertyOp12
 70
     1
102
RTVSPropertyOp13
 70
     1
102
RTVSPropertyOp14
 70
     1
102
RTVSPropertyOp15
 70
     1
102
RTVSPropertyOp16
 70
     1
102
RTVSPropertyOp17
 70
     1
102
RTVSPropertyOp18
 70
     1
102
RTVSPropertyOp19
 70
     1
102
RTVSPropertyOp20
 70
     1
102
RTVSPropertyOp21
 70
     1
102
RTVSPropertyOp22
 70
     1
102
RTVSPropertyOp23
 70
     1
102
RTVSPropertyOp24
 70
     1
102
RTVSPropertyOp25
 70
     1
102
RTVSPropertyOp26
 70
     1
102
RTVSPropertyOp27
 70
     1
102
RTVSPropertyOp28
 70
     1
102
RTVSPropertyOp29
 70
     1
102
RTVSPropertyOp30
 70
     1
102
RTVSPropertyOp31
 70
     1
102
RTVSPropertyOp32
 70
     1
  0
XRECORD
  5
3DE
102
{ACAD_REACTORS
330
3DD
102
}
330
3DD
100
AcDbXrecord
280
     1
102
RTVSPropertyOp0
 70
     1
102
RTVSPropertyOp1
 70
     1
102
RTVSPropertyOp2
 70
     1
102
RTVSPropertyOp3
 70
     1
102
RTVSPropertyOp4
 70
     1
102
RTVSPropertyOp5
 70
     1
102
RTVSPropertyOp6
 70
     1
102
RTVSPropertyOp7
 70
     1
102
RTVSPropertyOp8
 70
     1
102
RTVSPropertyOp9
 70
     1
102
RTVSPropertyOp10
 70
     1
102
RTVSPropertyOp11
 70
     1
102
RTVSPropertyOp12
 70
     1
102
RTVSPropertyOp13
 70
     1
102
RTVSPropertyOp14
 70
     1
102
RTVSPropertyOp15
 70
     1
102
RTVSPropertyOp16
 70
     1
102
RTVSPropertyOp17
 70
     1
102
RTVSPropertyOp18
 70
     1
102
RTVSPropertyOp19
 70
     1
102
RTVSPropertyOp20
 70
     1
102
RTVSPropertyOp21
 70
     1
102
RTVSPropertyOp22
 70
     1
102
RTVSPropertyOp23
 70
     1
102
RTVSPropertyOp24
 70
     1
102
RTVSPropertyOp25
 70
     1
102
RTVSPropertyOp26
 70
     1
102
RTVSPropertyOp27
 70
     1
102
RTVSPropertyOp28
 70
     1
102
RTVSPropertyOp29
 70
     1
102
RTVSPropertyOp30
 70
     1
102
RTVSPropertyOp31
 70
     1
102
RTVSPropertyOp32
 70
     1
  0
XRECORD
  5
3E0
102
{ACAD_REACTORS
330
3DF
102
}
330
3DF
100
AcDbXrecord
280
     1
102
RTVSPropertyOp0
 70
     1
102
RTVSPropertyOp1
 70
     1
102
RTVSPropertyOp2
 70
     1
102
RTVSPropertyOp3
 70
     1
102
RTVSPropertyOp4
 70
     1
102
RTVSPropertyOp5
 70
     1
102
RTVSPropertyOp6
 70
     1
102
RTVSPropertyOp7
 70
     1
102
RTVSPropertyOp8
 70
     1
102
RTVSPropertyOp9
 70
     1
102
RTVSPropertyOp10
 70
     1
102
RTVSPropertyOp11
 70
     1
102
RTVSPropertyOp12
 70
     1
102
RTVSPropertyOp13
 70
     1
102
RTVSPropertyOp14
 70
     1
102
RTVSPropertyOp15
 70
     1
102
RTVSPropertyOp16
 70
     1
102
RTVSPropertyOp17
 70
     1
102
RTVSPropertyOp18
 70
     1
102
RTVSPropertyOp19
 70
     1
102
RTVSPropertyOp20
 70
     1
102
RTVSPropertyOp21
 70
     1
102
RTVSPropertyOp22
 70
     1
102
RTVSPropertyOp23
 70
     1
102
RTVSPropertyOp24
 70
     1
102
RTVSPropertyOp25
 70
     1
102
RTVSPropertyOp26
 70
     1
102
RTVSPropertyOp27
 70
     1
102
RTVSPropertyOp28
 70
     1
102
RTVSPropertyOp29
 70
     1
102
RTVSPropertyOp30
 70
     1
102
RTVSPropertyOp31
 70
     1
102
RTVSPropertyOp32
 70
     1
  0
XRECORD
  5
3E2
102
{ACAD_REACTORS
330
3E1
102
}
330
3E1
100
AcDbXrecord
280
     1
102
RTVSPropertyOp0
 70
     1
102
RTVSPropertyOp1
 70
     1
102
RTVSPropertyOp2
 70
     1
102
RTVSPropertyOp3
 70
     1
102
RTVSPropertyOp4
 70
     1
102
RTVSPropertyOp5
 70
     1
102
RTVSPropertyOp6
 70
     1
102
RTVSPropertyOp7
 70
     1
102
RTVSPropertyOp8
 70
     1
102
RTVSPropertyOp9
 70
     1
102
RTVSPropertyOp10
 70
     1
102
RTVSPropertyOp11
 70
     1
102
RTVSPropertyOp12
 70
     1
102
RTVSPropertyOp13
 70
     1
102
RTVSPropertyOp14
 70
     1
102
RTVSPropertyOp15
 70
     1
102
RTVSPropertyOp16
 70
     1
102
RTVSPropertyOp17
 70
     1
102
RTVSPropertyOp18
 70
     1
102
RTVSPropertyOp19
 70
     1
102
RTVSPropertyOp20
 70
     1
102
RTVSPropertyOp21
 70
     1
102
RTVSPropertyOp22
 70
     1
102
RTVSPropertyOp23
 70
     1
102
RTVSPropertyOp24
 70
     1
102
RTVSPropertyOp25
 70
     1
102
RTVSPropertyOp26
 70
     1
102
RTVSPropertyOp27
 70
     1
102
RTVSPropertyOp28
 70
     1
102
RTVSPropertyOp29
 70
     1
102
RTVSPropertyOp30
 70
     1
102
RTVSPropertyOp31
 70
     1
102
RTVSPropertyOp32
 70
     1
  0
XRECORD
  5
3E4
102
{ACAD_REACTORS
330
3E3
102
}
330
3E3
100
AcDbXrecord
280
     1
102
RTVSPropertyOp0
 70
     1
102
RTVSPropertyOp1
 70
     1
102
RTVSPropertyOp2
 70
     1
102
RTVSPropertyOp3
 70
     1
102
RTVSPropertyOp4
 70
     1
102
RTVSPropertyOp5
 70
     1
102
RTVSPropertyOp6
 70
     1
102
RTVSPropertyOp7
 70
     1
102
RTVSPropertyOp8
 70
     1
102
RTVSPropertyOp9
 70
     1
102
RTVSPropertyOp10
 70
     1
102
RTVSPropertyOp11
 70
     1
102
RTVSPropertyOp12
 70
     1
102
RTVSPropertyOp13
 70
     1
102
RTVSPropertyOp14
 70
     1
102
RTVSPropertyOp15
 70
     1
102
RTVSPropertyOp16
 70
     1
102
RTVSPropertyOp17
 70
     1
102
RTVSPropertyOp18
 70
     1
102
RTVSPropertyOp19
 70
     1
102
RTVSPropertyOp20
 70
     1
102
RTVSPropertyOp21
 70
     1
102
RTVSPropertyOp22
 70
     1
102
RTVSPropertyOp23
 70
     1
102
RTVSPropertyOp24
 70
     1
102
RTVSPropertyOp25
 70
     1
102
RTVSPropertyOp26
 70
     1
102
RTVSPropertyOp27
 70
     1
102
RTVSPropertyOp28
 70
     1
102
RTVSPropertyOp29
 70
     1
102
RTVSPropertyOp30
 70
     1
102
RTVSPropertyOp31
 70
     1
102
RTVSPropertyOp32
 70
     1
  0
XRECORD
  5
3F8
102
{ACAD_REACTORS
330
3F7
102
}
330
3F7
100
AcDbXrecord
280
     1
102
RTVSPropertyOp0
 70
     1
102
RTVSPropertyOp1
 70
     1
102
RTVSPropertyOp2
 70
     1
102
RTVSPropertyOp3
 70
     1
102
RTVSPropertyOp4
 70
     1
102
RTVSPropertyOp5
 70
     1
102
RTVSPropertyOp6
 70
     1
102
RTVSPropertyOp7
 70
     1
102
RTVSPropertyOp8
 70
     1
102
RTVSPropertyOp9
 70
     1
102
RTVSPropertyOp10
 70
     1
102
RTVSPropertyOp11
 70
     1
102
RTVSPropertyOp12
 70
     1
102
RTVSPropertyOp13
 70
     1
102
RTVSPropertyOp14
 70
     1
102
RTVSPropertyOp15
 70
     1
102
RTVSPropertyOp16
 70
     1
102
RTVSPropertyOp17
 70
     1
102
RTVSPropertyOp18
 70
     1
102
RTVSPropertyOp19
 70
     1
102
RTVSPropertyOp20
 70
     1
102
RTVSPropertyOp21
 70
     1
102
RTVSPropertyOp22
 70
     1
102
RTVSPropertyOp23
 70
     1
102
RTVSPropertyOp24
 70
     1
102
RTVSPropertyOp25
 70
     1
102
RTVSPropertyOp26
 70
     1
102
RTVSPropertyOp27
 70
     1
102
RTVSPropertyOp28
 70
     1
102
RTVSPropertyOp29
 70
     1
102
RTVSPropertyOp30
 70
     1
102
RTVSPropertyOp31
 70
     1
102
RTVSPropertyOp32
 70
     1
  0
XRECORD
  5
3EE
102
{ACAD_REACTORS
330
3ED
102
}
330
3ED
100
AcDbXrecord
280
     1
102
RTVSPropertyOp0
 70
     1
102
RTVSPropertyOp1
 70
     1
102
RTVSPropertyOp2
 70
     1
102
RTVSPropertyOp3
 70
     1
102
RTVSPropertyOp4
 70
     1
102
RTVSPropertyOp5
 70
     1
102
RTVSPropertyOp6
 70
     1
102
RTVSPropertyOp7
 70
     1
102
RTVSPropertyOp8
 70
     1
102
RTVSPropertyOp9
 70
     1
102
RTVSPropertyOp10
 70
     1
102
RTVSPropertyOp11
 70
     1
102
RTVSPropertyOp12
 70
     1
102
RTVSPropertyOp13
 70
     1
102
RTVSPropertyOp14
 70
     1
102
RTVSPropertyOp15
 70
     1
102
RTVSPropertyOp16
 70
     1
102
RTVSPropertyOp17
 70
     1
102
RTVSPropertyOp18
 70
     1
102
RTVSPropertyOp19
 70
     1
102
RTVSPropertyOp20
 70
     1
102
RTVSPropertyOp21
 70
     1
102
RTVSPropertyOp22
 70
     1
102
RTVSPropertyOp23
 70
     1
102
RTVSPropertyOp24
 70
     1
102
RTVSPropertyOp25
 70
     1
102
RTVSPropertyOp26
 70
     1
102
RTVSPropertyOp27
 70
     1
102
RTVSPropertyOp28
 70
     1
102
RTVSPropertyOp29
 70
     1
102
RTVSPropertyOp30
 70
     1
102
RTVSPropertyOp31
 70
     1
102
RTVSPropertyOp32
 70
     1
  0
XRECORD
  5
3F6
102
{ACAD_REACTORS
330
3F5
102
}
330
3F5
100
AcDbXrecord
280
     1
102
RTVSPropertyOp0
 70
     1
102
RTVSPropertyOp1
 70
     1
102
RTVSPropertyOp2
 70
     1
102
RTVSPropertyOp3
 70
     1
102
RTVSPropertyOp4
 70
     1
102
RTVSPropertyOp5
 70
     1
102
RTVSPropertyOp6
 70
     1
102
RTVSPropertyOp7
 70
     1
102
RTVSPropertyOp8
 70
     1
102
RTVSPropertyOp9
 70
     1
102
RTVSPropertyOp10
 70
     1
102
RTVSPropertyOp11
 70
     1
102
RTVSPropertyOp12
 70
     1
102
RTVSPropertyOp13
 70
     1
102
RTVSPropertyOp14
 70
     1
102
RTVSPropertyOp15
 70
     1
102
RTVSPropertyOp16
 70
     1
102
RTVSPropertyOp17
 70
     1
102
RTVSPropertyOp18
 70
     1
102
RTVSPropertyOp19
 70
     1
102
RTVSPropertyOp20
 70
     1
102
RTVSPropertyOp21
 70
     1
102
RTVSPropertyOp22
 70
     1
102
RTVSPropertyOp23
 70
     1
102
RTVSPropertyOp24
 70
     1
102
RTVSPropertyOp25
 70
     1
102
RTVSPropertyOp26
 70
     1
102
RTVSPropertyOp27
 70
     1
102
RTVSPropertyOp28
 70
     1
102
RTVSPropertyOp29
 70
     1
102
RTVSPropertyOp30
 70
     1
102
RTVSPropertyOp31
 70
     1
102
RTVSPropertyOp32
 70
     1
  0
ENDSEC
  0
EOF
